Ashes in Your Mouth Tabs & Lyrics by Megadeth

Ashes in Your Mouth

guitar tabs lyrics

Megadeth

Album : Countdown to Extinction thrash metal PlayStop



ASHES IN YOUR MOUTH
As recorded by Megadeth

Transcribed by XxMegaDylanxX


Words and Music by D. Mustaine, D. Ellefson, N. Menza & M. Friedman

Gtr I (E A D G B E) - 'Untitled'

Gtr II (E A D G B E) - 'Untitled'
Gtr III (E A D G B E) - 'Untitled'
Gtr IV (E A D G B E) - 'Untitled'

Intro
Q=144
4/4
Gtrs I, II
PM----|
W H Q Q S E S E S S +S S e S S S S
||------------|---------------|---------------------------------|
||o-----------|---------------|---------------------------------|
||--15--------|-14----12--10--|---------------------------------|
||--15--------|-14----12--10--|---2----3----2-(2)--2------------|
||o-13--------|-12----10---8--|-2-2----3--3-2-(2)--2--2-5-5-3-3-|
||------------|---------------|-0---1-(1)-1-0-(0)-(0)-0---------|


PM----|
S E S E S S +S S e S S S S 3x
|-------------------------------------||
|------------------------------------o||
|-------------------------------------||
|---2----3----2-(2)--2----------------||
|-2-2----3--3-2-(2)--2--2-5-5-3-3----o||
|-0---1-(1)-1-0-(0)-(0)-0-------------||


W H Q Q S S S S S S S S S S S S S S S S
|-----------|---------------|--------------------------------------|
|-----------|---------------|--------------------------------------|
|-15--------|-14----12--10--|--------------------------------------|
|-15--------|-14----12--10--|----------6-7-8-9-11-10-9-8-10-9-8-7--|
|-13--------|-12----10---8--|-7-8-9-10-----------------------------|
|-----------|---------------|--------------------------------------|


S S S S S S S S S S S S S S S S
|-----------------------------------------|
|-----------------------------------------|
|-----------------------------------------|
|-----------7-8-9-10-12-11-10-9-11-10-9-8-|
|-8-9-10-11-------------------------------|
|-----------------------------------------|


S S S S S S S S S S S S S S S S S S S S S S S S S S S S Q
|---------------------------------------------|--------------------------------------||
|---------------------------------------------|--------------------------------------||
|---------------------------------------------|------------------------9-9-9-9-9\----||
|------------8-9-10-11-13-12-11-10-12-11-10-9-|-------------9-10-11-12-9-9-9-9-9\----||
|-9-10-11-12----------------------------------|-10-11-12-13------------7-7-7-7-7\----||
|---------------------------------------------|--------------------------------------||


2/4 4/4 5/8
E E S S E E e E S S E E E E Q S S E E E E S S E E E E E
||------------------------|---------|----------------------|------------||
||o-----------------------|---------|----------------------|-----------o||
||------------------------|---------|----------------------|------------||
||--2-------5---(2)-------|-5-------|-2------5---(2)-------|-5----------||
||o-2---4-5-3-5--2----4-5-|-3-5-5-5-|-2--4-5-3-5--2----4-5-|-3-5-5-5-5-o||
||--0---2-3-3-3--0----2-3-|-3-3-5-3-|-0--2-3-3-3--0----2-3-|-3-3-5-3-2--||


Verse 1 & 2
4/4
E E E E E E E E E E E E E E E E
||------------------|-----------------|
||o-----------------|-----------------|
||------------------|-----------------|
||--2-2---2---2-----|-2-2---2---2-----|
||o-2-2---2---2-----|-2-2---2---2-----|
||--0---x-0-x-0-x-x-|-0---x-0-x-0-x-x-|


E E E E E E E E E E E E E S S S S E
|-----------------|-------------------------|
|-----------------|-------------------------|
|-----------------|-------------------------|
|-2-2---2---2-----|-2-2---2---3-(3)-2-2-0---|
|-2-2---2---2-----|-2-2---2---1-(1)-0-0-x---|
|-0---x-0-x-0-x-x-|-0---x-0-x-----------3---|


E E E E E E E E E E E E E E E E
|-----------------|-----------------|
|-----------------|-----------------|
|-----------------|-----------------|
|-2-2---2---2-----|-2-2---2---2-----|
|-2-2---2---2-----|-2-2---2---2-----|
|-0---x-0-x-0-x-x-|-0---x-0-x-0-x-x-|


E E E E E E E E E E E E E S S S S E
|-----------------|-------------------------|
|-----------------|-------------------------|
|-----------------|-------------------------|
|-2-2---2---2-----|-2-2---2---3-(3)-2-2-0---|
|-2-2---2---2-----|-2-2---2---1-(1)-0-0-x---|
|-0---x-0-x-0-x-x-|-0---x-0-x-----------3---|


2/4 4/4
E E S S E E E E E E E E E E E E E E E E E E E E E E E E E
|-------------|-----------------|-----------------|-----------------|
|-------------|-----------------|-----------------|-----------------|
|---3-2-2-(5)-|-----------------|-----------------|-----------------|
|---3-2-2--5--|-2-2---2---2-----|-2-2---2---2-----|-2-2---2---2-----|
|---1-0-0--5--|-2-2---2---2-----|-2-2---2---2-----|-2-2---2---2-----|
|----------3--|-0---x-0-x-0-x-x-|-0---x-0-x-0-x-x-|-0---x-0-x-0-x-x-|


E E E E E S S S S E E E E E E E E E
|-----------------------|-----------------|
|-----------------------|-----------------|
|-----------------------|-----------------|
|-2-2---2---3-(3)-2-2-0-|-2-2---2---2-----|
|-2-2---2---1-(1)-0-0-x-|-2-2---2---2-----|
|-0---x-0-x-----------3-|-0---x-0-x-0-x-x-|


E E E E E E E E E E E E E E E E
|-----------------|-------------------|
|-----------------|-------------------|
|-----------------|-------------------|
|-2-2---2---2-----|-2-2---2---2-------|
|-2-2---2---2-----|-2-2---2---2-------|
|-0---x-0-x-0-x-x-|-0---x-0-x-0-x-x---|


E E E E E S S S S E E E S S E E E S S E
|-----------------------|-------------------------||
|-----------------------|-------------------------||
|-----------------------|---3-2-2-(5)---3-2-2-(5)-||
|-2-2---2---3-(3)-2-2-0-|---3-2-2--5----3-2-2--5--||
|-2-2---2---1-(1)-0-0-x-|---1-0-0--5----1-0-0--5--||
|-0---x-0-x-----------3-|----------3-----------3--||


2/4 4/4 5/8
E E S S E E e E S S E E E E Q S S E E E E S S E E E E E
|-----------------------|---------|----------------------|-------------||
|-----------------------|---------|----------------------|------------o||
|-----------------------|---------|----------------------|-------------||
|-2-------5---(2)-------|-5-------|-2------5---(2)-------|-5-----------||
|-2---4-5-3-5--2----4-5-|-3-5-5-5-|-2--4-5-3-5--2----4-5-|-3-5-5-5-5--o||
|-0---2-3-3-3--0----2-3-|-3-3-5-3-|-0--2-3-3-3--0----2-3-|-3-3-5-3-2---||


Chorus
4/4
E S S E S S E E E E E E E E e E Q
|-------------------------|-------------------|
|-------------------------|-------------------|
|-------------------------|-------------------|
|---------5-------4---8s9-|-9-9-9-12---12-11--|
|-(2)-5h7---7-(7)---7-6s7-|-7-7-7-10---10--9--|
|--0----------------------|----------0--------|


E S S E S S E E E E E E E E e E Q
|-------------------------|--------------------|
|-------------------------|--------------------|
|-------------------------|--------------------|
|---------5-------4---8s9-|-9-9-9-12---12-11---|
|-(2)-5h7---7-(7)---7-6s7-|-7-7-7-10---10--9---|
|--0----------------------|----------0---------|


E S S E S S E E E E E E E E e E Q
|-------------------------|-------------------|
|-------------------------|-------------------|
|-------------------------|-------------------|
|---------5-------4---8s9-|-9-9-9-12---12-11--|
|-(2)-5h7---7-(7)---7-6s7-|-7-7-7-10---10--9--|
|--0----------------------|----------0--------|


E S S E S S E E E E e E E e e e E E
|-------------------------|-------------------||
|-------------------------|-------------------||
|-------------------------|-------------------||
|---------5-------4-------|--------------8-10-||
|-(2)-5h7---7-(7)---7-4s5-|---10S9-----8------||
|--0------------------2s3-|-0--8S7-0-6--------||


Interlude
E E E E E E E E E E E E E E Q Q E E Q E E +E E E E E E Q
|-----------------|----------------|---------------|--------------------|
|-----------------|----------------|---------------|--------------------|
|-----------------|----------------|---------------|----------2---------|
|---------5-------|-5-4-----5---4--|----4------2---|--------------------|
|-----7-------7---|-----6----------|-5----5-3------|-----4-5-(5)-5-5-4--|
|-0-0---0---0---0-|-------7--------|-------------5-|-(5)-----------3-2--|


E E E E E E E E E E E E E E Q Q E E Q E E +E E E E E E Q
|-----------------|----------------|---------------|--------------------|
|-----------------|----------------|---------------|--------------------|
|-----------------|----------------|---------------|----------2---------|
|---------5-------|-5-4-----5---4--|----4------2---|--------------------|
|-----7-------7---|-----6----------|-5----5-3------|-----4-5-(5)-5-5-4--|
|-0-0---0---0---0-|-------7--------|-------------5-|-(5)-----------3-2--|


E E E E E E E E E E E E E E Q Q E E Q E E +E E E E E E Q
|-----------------|----------------|---------------|--------------------|
|-----------------|----------------|---------------|--------------------|
|-----------------|----------------|---------------|----------2---------|
|---------5-------|-5-4-----5---4--|----4------2---|--------------------|
|-----7-------7---|-----6----------|-5----5-3------|-----4-5-(5)-5-5-4--|
|-0-0---0---0---0-|-------7--------|-------------5-|-(5)-----------3-2--|


E E E E E E E E E E E E E E Q Q E E Q E E +E E E E E E Q
|-----------------|----------------|---------------|--------------------|
|-----------------|----------------|---------------|--------------------|
|-----------------|----------------|---------------|----------2---------|
|---------5-------|-5-4-----5---4--|----4------2---|--------------------|
|-----7-------7---|-----6----------|-5----5-3------|-----4-5-(5)-5-5-4--|
|-0-0---0---0---0-|-------7--------|-------------5-|-(5)-----------3-2--|


Chorus
E S S E S S E E E E e e e E e E Q
|-------------------------|-------------------|
|-------------------------|-------------------|
|-------------------------|-------------------|
|---------5-------4---8s9-|-------12---12-11--|
|-(2)-5h7---7-(7)---7-6s7-|-------10---10--9--|
|--0----------------------|-0-0-0----0--------|


E S S E S S E E E E e e e E e E Q
|-------------------------|-------------------|
|-------------------------|-------------------|
|-------------------------|-------------------|
|---------5-------4---8s9-|-------12---12-11--|
|-(2)-5h7---7-(7)---7-6s7-|-------10---10--9--|
|--0----------------------|-0-0-0----0--------|


E S S E S S E E E E e e e E e E Q
|-------------------------|-------------------|
|-------------------------|-------------------|
|-------------------------|-------------------|
|---------5-------4---8s9-|-------12---12-11--|
|-(2)-5h7---7-(7)---7-6s7-|-------10---10--9--|
|--0----------------------|-0-0-0----0--------|


E S S E S S E E E E e E E e e e E E
|-------------------------|-------------------||
|-------------------------|-------------------||
|-------------------------|-------------------||
|---------5-------4-------|--------------8-10-||
|-(2)-5h7---7-(7)---7-4s5-|---10S9-----8------||
|--0------------------2s3-|-0--8S7-0-6--------||


Breakdown
e S S S e S e S S S e S e S S S e S e S S S S E
|-------------------------|-------------------------|
|-------------------------|-------------------------|
|-------------------------|-------------------------|
|-------------------------|-------------------------|
|-------------------------|-----------------------3-|
|-0-0-0-0-0-0-0-0-0-0-0-0-|-0-0-0-0-0-0-0-0-0-0-0-1-|


e S S S e S e S S S e S e S S S e S e S S S S E
|-------------------------|-------------------------|
|-------------------------|-------------------------|
|-------------------------|-------------------------|
|-------------------------|-----------------------3-|
|-------------------------|-----------------------1-|
|-0-0-0-0-0-0-0-0-0-0-0-0-|-0-0-0-0-0-0-0-0-0-0-0---|


e S S S e S e S S S S E e S S S e S e S S S S E
|-------------------------|-------------------------|
|-------------------------|-------------------------|
|-------------------------|-------------------------|
|-----------------------4-|-----------------------5-|
|-----------------------2-|-----------------------3-|
|-0-0-0-0-0-0-0-0-0-0-0---|-0-0-0-0-0-0-0-0-0-0-0---|


e S S S e S e S S S S S S e E Q H
|---------------------------|-------------||
|---------------------------|-------------||
|---------------------------|-------------||
|---------------------------|-4-----------||
|---------------------------|-2-----------||
|-0-0-0-0-0-0-0-0-0-0-0-0-0-|-------------||


Guitar Solo I
Gtr I
PM----------------------------------------------------------
E S S S S S S S S S S S S S S
|------------------------------------------------------------------|
|------------------------------------------------------------------|
|------------------------------------------------------------------|
|------------------------------------------------------------------|
|------------------------------------------------------------------|
|--0----0--0--------0---0--0------0---0-----0-0--0--0--0---0-----0-|
|
| Gtr II
| E. S +E S S E. S S S S S
|------------------------------------------------------------------|
|--8-------8-------(8)-----8------8---8----------8--8--8---8-------|
|-10b12---10pb12==(10)r---10b12==10r-10b12======10-10-10r-10b12r10-|
|------------------------------------------------------------------|
|------------------------------------------------------------------|
|------------------------------------------------------------------|


-| PM----------------------------|
E E E E E E E E E S S S S S S S S S S S S S S
|-----------------------|---------------------------------------|
|-----------------------|---------------------------------------|
|-----------------------|---------------------------------------|
|---4---5---4-----------|---------------------------------------|
|---2---3---2---------5-|--4------------------------------------|
|-0-------------------3-|--2-2-2-2--2-2-2-2--2-2-2--2-2--2--2---|
|
| ~ ~~
| |----3----|
| H Q Q Q Q Q Q e S S
|-----------------------|-------------------------------10h12---|
|-----------------------|-------------------------------10h12---|
|-9-------9---11---12---|-11-----x\-------x\--------------------|
|-----------------------|--------x\-------x\-------12-----------|
|-----------------------|---------------------------------------|
|-----------------------|---------------------------------------|


S S S S S S S S S S S S S S S S
|----------------------------------------|
|----------------------------------------|
|----------------------------------------|
|----------------------------------------|
|-------------1--2---3-3-4-3-2-1---------|
|--2--3-4--5---------------------5-5-3-3-|
|
| S E S S T T S S S S S S S S S S
|-12---------10----------8---------------|
|-12S10---10-10-10p8p7h8-8-8-7---8p7-----|
|------------------------------9-----9-8-|
|----------------------------------------|
|----------------------------------------|
|----------------------------------------|


PM---------------------------|
E S S S S S S S S S S S S S S
|---------------------------------------|
|---------------------------------------|
|---------------------------------------|
|---------------------------------------|
|---------------------------------------|
|--0-----0-0-0-0---0--0-0-0-0-0-0-0-0-0-|
|
| ~
| Q. +E Q S S S S
|-------------------------------0-0-0-0-|
|-10pb12r========(10)---5-------5-5-5-5-|
|---------------------------------------|
|---------------------------------------|
|---------------------------------------|
|---------------------------------------|


PM
E E E E E E E E
|-------------------------------------------|
|-------------------------------------------|
|-------------------------------------------|
|--------4-----5----------4-----------------|
|--------2-----3----------2------------5----|
|--0-----------------------------------3----|
|
| ~~
| Q. +S +S Q +S a E S
|-------------------------------------------|
|-15b17======(15)r(15)-------------------17-|
|----------------------12---(12)-16s18------|
|-------------------------------------------|
|-------------------------------------------|
|-------------------------------------------|


PM----------------------------------------------|
E S S S S S S S S S S S S S S E E Q H
|-------------------------------------------------------------|-----------------------------||
|-------------------------------------------------------------|-----------------------------||
|-------------------------------------------------------------|-(4)-------------------------||
|-------------------------------------------------------------|--4--------------------------||
|--4----------------------------------------------------------|--2--------------------------||
|--2-----2--2--2----2-----2--2--2--2--2--2--2----2-----2---2--|-----------------------------||
|
| |---3---| |---3---|
| S S S S S S S S S S S S S S S S S S H +Q +Q
|-15-------18p15------------------18----15-21p15------15-(15)-|-----------------------------||
|-------17-------17------------------17-------------------15--|-20----------(20)--(20)r\----||
|----18---------------18-15-12s15------------------18---------|-19b21=======(19)--(19)\-----||
|-------------------------------------------------------------|-----------------------------||
|-------------------------------------------------------------|-----------------------------||
|-------------------------------------------------------------|-----------------------------||


Breakdown
Gtrs I, II
e S S S e S e S S S e S e S S S e S e S S S S E
|-------------------------|-------------------------|
|-------------------------|-------------------------|
|-------------------------|-------------------------|
|-------------------------|-------------------------|
|-------------------------|-----------------------3-|
|-0-0-0-0-0-0-0-0-0-0-0-0-|-0-0-0-0-0-0-0-0-0-0-0-1-|


e S S S e S e S S S e S e S S S e S e S S S S E
|-------------------------|-------------------------||
|-------------------------|-------------------------||
|-------------------------|-------------------------||
|-------------------------|-----------------------3-||
|-------------------------|-----------------------1-||
|-0-0-0-0-0-0-0-0-0-0-0-0-|-0-0-0-0-0-0-0-0-0-0-0---||


Guitar Solo II
Gtr I
PM------------------------------|
E S S S S S S S S S S S S S S E E E E E E E E
|-----------------------------------|--------------------------------------|
|-----------------------------------|--------------------------------------|
|-----------------------------------|--------------------------------------|
|-----------------------------------|-----4-------5------4-----------------|
|-----------------------------------|-----2-------3------2-----------5-----|
|-0---0-0-0-0-0-0-0-0-0-(0)-0-0-0-0-|-0------------------------------3-----|
|
| Gtr II
| S S S S S S S S S S S S S S S S S S S S S S S S E. S S S S S
|-----------------------------------|----------------------10s12-----------|
|-----------------------------------|----------------------------15-13-12--|
|---------------------------5p0-0-0-|-4-4-4-4-7-4-4-4-0--------------------|
|-2-2-2-2-5-2-2-2-5-5-5--5----------|--------------------------------------|
|-----------------------------------|--------------------------------------|
|-----------------------------------|--------------------------------------|


PM------------------------------------------|
E S S S S S S S S S S S S S S
|---------------------------------------------------|
|---------------------------------------------------|
|---------------------------------------------------|
|---------------------------------------------------|
|--4------------------------------------------------|
|--2--2-2-2-2--2-----2---2--2-2-2---2---2----2----2-|
|
| ~~~
| |-----3-----|
| Q. E +Q +E E E
|---------------------------------------------------|
|-------------12b14====(12)-------(12)r---12--------|
|-15-------------------------------------------15---|
|---------------------------------------------------|
|---------------------------------------------------|
|---------------------------------------------------|


S S S S S S S S S S S S S S S S
|-----------------------------------------------------------|
|-----------------------------------------------------------|
|-----------------------------------------------------------|
|-----------------------------------------------------------|
|-----------1-2--3-----3---4----3-------2---1---------------|
|--2-3-4-5--------------------------------------5--5--3--3--|
|
| ~~
| Q E E +S +S +S S +E S S
|-----------------------------------------------------------|
|------------------------------------------12-(12)----------|
|-14-------12---14b16====(14)r(14)b16r(14)-----------14-12--|
|-----------------------------------------------------------|
|-----------------------------------------------------------|
|-----------------------------------------------------------|


PM-----------------------------------------
E S S S S S S S S S S S S S S
|--------------------------------------------------|
|--------------------------------------------------|
|--------------------------------------------------|
|--------------------------------------------------|
|--------------------------------------------------|
|--0-----0--0--0--0--0--0--0--0--0-(0)--0--0--0--0-|
|
| S S S S S S S S S S S S S S S S
|--------------------------------------------------|
|----------------13--------------------------------|
|-16-14-12----------16-14-16-14-12--------16-14-12-|
|----------16-14-------------------16--14----------|
|--------------------------------------------------|
|--------------------------------------------------|


-|
E E E E E E E E
|-------------------------------------------------|
|-------------------------------------------------|
|-------------------------------------------------|
|--------4-----------5-----------4----------------|
|--------2-----------3-----------2-----------5----|
|--0-----------------------------------------3----|
|
| S S S S S S S S S S S S S S S S
|-------------------------------------------------|
|-------------------------------------------------|
|-------------13----13-16----12-15----12-15-14-12-|
|-16-14-13-14----14-------14-------14-------------|
|-------------------------------------------------|
|-------------------------------------------------|


PM------------------------------------------------------|
E S S S S S S S S S S S S S S
|---------------------------------------------------------------------|
|---------------------------------------------------------------------|
|---------------------------------------------------------------------|
|---------------------------------------------------------------------|
|--4------------------------------------------------------------------|
|--2-----2--2--2----2-----2--2--2--2--2----2-----2----2-----2----2----|
|
| |---3---| |---3---| |---3---| |---3---|
| S S S S S S S S S S S S S S S S S S S S
|------------------------14s18----------------------------------------|
|-------11-12-14p12p==11------------------------19p17p==15------------|
|-11-12------------------------15-16-18p16p==15------------18p16p==15-|
|---------------------------------------------------------------------|
|---------------------------------------------------------------------|
|---------------------------------------------------------------------|


E E Q H
|---------------------------------------------------------||
|---------------------------------------------------------||
|-(4)-----------------------------------------------------||
|--4------------------------------------------------------||
|--2------------------------------------------------------||
|---------------------------------------------------------||
|
| E S S S S S +S S S S S S S S S
|----------12---------------------------------------------||
|-------12----15p12---------------------------------------||
|-14b16-------------14pb15r(14)p12------------------------||
|----------------------------------14-12------------------||
|----------------------------------------14-13-12---------||
|-------------------------------------------------15-12\--||


Guitar Solo III
PM---------------------------------------------------------------
E S S S S S S S S S S S S S S
|---------------------------------------------------------------------------|
|---------------------------------------------------------------------------|
|---------------------------------------------------------------------------|
|---------------------------------------------------------------------------|
|---------------------------------------------------------------------------|
|--0--------0--0--0----0-----0----0-------0----0-----0-(0)--0----0-----0--0-|
|
| |--3--| |---3---| |---3----| |---3---| |---3---|
| S S S S S S S S S S S S S S S S S S S S S
|-12h15p12----12-12h15p==12----12---(12)-12h15p==12----12--12h15p==12----12-|
|----------15---------------15----------------------15----------------15----|
|---------------------------------------------------------------------------|
|---------------------------------------------------------------------------|
|---------------------------------------------------------------------------|
|---------------------------------------------------------------------------|


-|
E E E E E E E E
|--------------------------------------------------------------|
|--------------------------------------------------------------|
|--------------------------------------------------------------|
|-----------4--------------5--------------4--------------------|
|-----------2--------------3--------------2--------------5-----|
|--0-----------------------------------------------------3-----|
|
| |--3--| |--3--| |--3--| |--3--|
| S S S S S S S S S S S S S S S S S S S S
|-12h17p12----12-12h17p12----12-12h17p12----12-12h17p12--------|
|----------15-------------15-------------15-------------15s17--|
|--------------------------------------------------------------|
|--------------------------------------------------------------|
|--------------------------------------------------------------|
|--------------------------------------------------------------|


PM---------------------------------------------------|
E S S S S S S S S S S S S S S
|-------------------------------------------------------------------|
|-------------------------------------------------------------------|
|-------------------------------------------------------------------|
|-------------------------------------------------------------------|
|--4----------------------------------------------------------------|
|--2--------2--2--2----2-----2--2--2----2-----2--2--2----2-----2--2-|
|
| |--3--| |---3---| |---3---| |---3---|
| S S S S S S S S S S S S S S S S S S S S
|-14h17p14----14-14h17p==14----14-14h17p==14----14-14h17p==14----14-|
|----------16---------------16---------------16---------------16----|
|-------------------------------------------------------------------|
|-------------------------------------------------------------------|
|-------------------------------------------------------------------|
|-------------------------------------------------------------------|


S S S S S S S S S S S S S S S S
|-----------------------------------------------------------------------|
|-----------------------------------------------------------------------|
|-----------------------------------------------------------------------|
|-----------------------------------------------------------------------|
|-------------------1----2-----3--3--4----3-----2--1--------------------|
|--2----3-----4--5------------------------------------5----5-----3--3---|
|
| |---3---| |---3---| |---3---| |---3---|
| S S S S S S S S S S S S S S S S S S S S
|-14h19p==14----14-14h19p==14----14-14h19p==14----14-14h19p==14----14---|
|------------16---------------16---------------16---------------16------|
|-----------------------------------------------------------------------|
|-----------------------------------------------------------------------|
|-----------------------------------------------------------------------|
|-----------------------------------------------------------------------|


PM---------------------------------------------------------------
E S S S S S S S S S S S S S S
|---------------------------------------------------------------------------|
|---------------------------------------------------------------------------|
|---------------------------------------------------------------------------|
|---------------------------------------------------------------------------|
|---------------------------------------------------------------------------|
|--0--------0--0--0----0-----0----0-------0----0-----0-(0)--0----0-----0--0-|
|
| |--3--| |---3---| |---3----| |---3---| |---3---|
| S S S S S S S S S S S S S S S S S S S S S
|-12h15p12----12-12h15p==12----12---(12)-12h15p==12----12--12h15p==12----12-|
|----------15---------------15----------------------15----------------15----|
|---------------------------------------------------------------------------|
|---------------------------------------------------------------------------|
|---------------------------------------------------------------------------|
|---------------------------------------------------------------------------|


-|
E E E E E E E E
|--------------------------------------------------------------|
|--------------------------------------------------------------|
|--------------------------------------------------------------|
|-----------4--------------5--------------4--------------------|
|-----------2--------------3--------------2--------------5-----|
|--0-----------------------------------------------------3-----|
|
| |--3--| |--3--| |--3--| |--3--|
| S S S S S S S S S S S S S S S S S S S S
|-12h17p12----12-12h17p12----12-12h17p12----12-12h17p12--------|
|----------15-------------15-------------15-------------15s17--|
|--------------------------------------------------------------|
|--------------------------------------------------------------|
|--------------------------------------------------------------|
|--------------------------------------------------------------|


PM------------------------------------------------------|
E S S S S S S S S S S S S S S
|------------------------------------------------------------------------|
|------------------------------------------------------------------------|
|------------------------------------------------------------------------|
|------------------------------------------------------------------------|
|--4---------------------------------------------------------------------|
|--2--------2--2--2----2-----2--2--2----2-----2--2--2----2-----2----2----|
|
| |--3--| |---3---| |---3---| |---3---| |---3---|
| S S S S S S S S S S S S S S S S S S S S S
|-14h17p14----14-14h17p==14----14-14h17p==14----14-14h17p==14----14---14-|
|----------16---------------16---------------16---------------16---------|
|------------------------------------------------------------------------|
|------------------------------------------------------------------------|
|------------------------------------------------------------------------|
|------------------------------------------------------------------------|


E E Q H
|--------------------------------------------------------------------------|
|--------------------------------------------------------------------------|
|-(4)----------------------------------------------------------------------|
|--4-----------------------------------------------------------------------|
|--2-----------------------------------------------------------------------|
|--------------------------------------------------------------------------|
|
| |-------6-------| |------6-------| |------6-------| |------6-------|
| S S S S S S S S S S S S S S S S S S S S S S S S
|-17--19-19-19-19-19-19-19-19-19-19-19-19-19-19-19-19-19-19-19-19-19-19-19-|
|--------------------------------------------------------------------------|
|--------------------------------------------------------------------------|
|--------------------------------------------------------------------------|
|--------------------------------------------------------------------------|
|--------------------------------------------------------------------------|


E E Q H
|---------------||
|---------------||
|-(4)-----------||
|--4------------||
|--2------------||
|---------------||
|
| W
|-19------------||
|---------------||
|---------------||
|---------------||
|---------------||
|---------------||


Interlude II
Gtr III
|--3--| |--3--|
Q Q Q Q Q Q W +H +Q. E W
|-19-22-19-17-------|-----------|-------------------|-------|
|-------------19----|-----------|-------------------|-------|
|----------------19-|-----------|-------------------|-------|
|-------------------|-17--------|-(17)----(17)---16-|-17----|
|-------------------|-----------|-------------------|-------|
|-------------------|-----------|-------------------|-------|
|
| Gtr IV
| |--3--| |--3--|
| Q Q Q Q Q Q W +H +Q. E W
|-15-19-15-14-------|-----------|-------------------|-------|
|-------------15----|-----------|-------------------|-------|
|----------------14-|-----------|-------------------|-------|
|-------------------|-14--------|-(14)----(14)---12-|-14----|
|-------------------|-----------|-------------------|-------|
|-------------------|-----------|-------------------|-------|


|--3--| |--3--|
Q Q Q Q Q Q W
|-19-22-19-17-------|-----------|
|-------------19----|-----------|
|----------------19-|-----------|
|-------------------|-17--------|
|-------------------|-----------|
|-------------------|-----------|
|
| |--3--| |--3--|
| Q Q Q Q Q Q W
|-15-19-15-14-------|-----------|
|-------------15----|-----------|
|----------------14-|-----------|
|-------------------|-14--------|
|-------------------|-----------|
|-------------------|-----------|


S S S S S S S S S S S S S S S S W
|-------------------------------------------------|-------|
|----------------------15-17p15-17p15-------------|-------|
|----------16-17p16h17----------------17p16-17p16-|-------|
|-17p16h17----------------------------------------|-17----|
|-------------------------------------------------|-------|
|-------------------------------------------------|-------|
|
| S S S S S S S S S S S S S S S S W
|-------------------------------------------------|-------|
|----------------------12-13p12-13p12-------------|-------|
|----------12-14p12h14----------------14p12-14p12-|-------|
|-14p12h14----------------------------------------|-14----|
|-------------------------------------------------|-------|
|-------------------------------------------------|-------|


|--3--| |--3--|
Q Q Q Q Q Q Q. E E S S S S S S
|-19-22-19-17-------|----------------------17-19-20-|
|-------------19----|-------------17-19-20----------|
|----------------19-|-------------------------------|
|-------------------|-17----16-17-------------------|
|-------------------|-------------------------------|
|-------------------|-------------------------------|
|
| |--3--| |--3--|
| Q Q Q Q Q Q Q. E E S S S S S S
|-15-19-15-14-------|-------------------------15-17-|
|-------------15----|----------------15-17-19-------|
|----------------14-|-------------17----------------|
|-------------------|-14-------14-------------------|
|-------------------|-------17----------------------|
|-------------------|-------------------------------|


|--3--| |--3--|
Q Q Q Q Q Q Q. E E S S S S S S
|-19-22-19-17-------|-------------20-19-17------------|
|-------------19----|----------------------20-19-17---|
|----------------19-|---------------------------------|
|-------------------|-17----16-17---------------------|
|-------------------|---------------------------------|
|-------------------|---------------------------------|
|
| |--3--| |--3--|
| Q Q Q Q Q Q Q. E E S S S S S S
|-15-19-15-14-------|-------------17-15-14------------|
|-------------15----|----------------------17-15------|
|----------------14-|----------------------------17---|
|-------------------|-14-------14---------------------|
|-------------------|-------17------------------------|
|-------------------|---------------------------------|


|--3--| |--3--|
Q Q Q Q Q Q
|-19-22-19-17-------|
|-------------19----|
|----------------19-|
|-------------------|
|-------------------|
|-------------------|
|
| |--3--| |--3--|
| Q Q Q Q Q Q
|-15-19-15-14-------|
|-------------15----|
|----------------14-|
|-------------------|
|-------------------|
|-------------------|


|--3--| |--3--|
Q Q Q Q Q Q S S S S S S S S S S S S S S S S
|-19-22-19-17-------|-15p12h15p12-16p13h16p13-17p14h17p14-18p15h18p15-|
|-------------19----|-------------------------------------------------|
|----------------19-|-------------------------------------------------|
|-------------------|-------------------------------------------------|
|-------------------|-------------------------------------------------|
|-------------------|-------------------------------------------------|
|
| |--3--| |--3--|
| Q Q Q Q Q Q S S S S S S S S S S S S S S S S
|-15-19-15-14-------|-10p=7h10p=7-11p=8h11p=8-12p=9h12p=9-13p10h13p10-|
|-------------15----|-------------------------------------------------|
|----------------14-|-------------------------------------------------|
|-------------------|-------------------------------------------------|
|-------------------|-------------------------------------------------|
|-------------------|-------------------------------------------------|


S S S S S S S S S S S S S S S S
|-19p16h19p16-20p17h20p17-21p18h21p18-22p19h22p19--||
|--------------------------------------------------||
|--------------------------------------------------||
|--------------------------------------------------||
|--------------------------------------------------||
|--------------------------------------------------||
|
| S S S S S S S S S S S S S S S S
|-14p11h14p11-15p12h15p12-16p13h16p13-17p14h17p14--||
|--------------------------------------------------||
|--------------------------------------------------||
|--------------------------------------------------||
|--------------------------------------------------||
|--------------------------------------------------||


Gtr III
S +S +E Q H
|-22b24r(22)b24==(22)r\-------------------|
|-----------------------------------------|
|-----------------------------------------|
|-----------------------------------------|
|-----------------------------------------|
|-----------------------------------------|
|
| Gtr IV
| S +S +E Q H
|-17b19r(17)b19==(17)r\-------------------|
|-----------------------------------------|
|-----------------------------------------|
|-----------------------------------------|
|-----------------------------------------|
|-----------------------------------------|
|
| Gtrs I, II
| E E S S E E e E S S
|-----------------------------------------|
|-----------------------------------------|
|-----------------------------------------|
|--2------------------------5---(2)-------|
|--2--------------------4-5-3-5--2----4-5-|
|--0--------------------2-3-3-3--0----2-3-|


2/4 4/4 5/8
H W H E
|---------|----------------------|-----------|
|---------|----------------------|-----------|
|---------|----------------------|-----------|
|---------|----------------------|-----------|
|---------|----------------------|-----------|
|---------|----------------------|-----------|
|
| H W H E
|---------|----------------------|-----------|
|---------|----------------------|-----------|
|---------|----------------------|-----------|
|---------|----------------------|-----------|
|---------|----------------------|-----------|
|---------|----------------------|-----------|
|
| E E E E Q S S E E E E S S E E E E E
|---------|----------------------|-----------|
|---------|----------------------|-----------|
|---------|----------------------|-----------|
|-5-------|-2------5---(2)-------|-5---------|
|-3-5-5-5-|-2--4-5-3-5--2----4-5-|-3-5-5-5-5-|
|-3-3-5-3-|-0--2-3-3-3--0----2-3-|-3-3-5-3-2-|


4/4 2/4 4/4 5/8
Gtrs I, II
E E S S E E e E S S E E E E Q S S E E E E S S E E E E E
|-----------------------|---------|----------------------|-----------||
|-----------------------|---------|----------------------|-----------||
|-----------------------|---------|----------------------|-----------||
|-2-------5---(2)-------|-5-------|-2------5---(2)-------|-5---------||
|-2---4-5-3-5--2----4-5-|-3-5-5-5-|-2--4-5-3-5--2----4-5-|-3-5-5-5-5-||
|-0---2-3-3-3--0----2-3-|-3-3-5-3-|-0--2-3-3-3--0----2-3-|-3-3-5-3-2-||


Pre-Chorus
4/4
E S S E S S E E E E e e e E e E Q
|-------------------------|-------------------|
|-------------------------|-------------------|
|-------------------------|-------------------|
|---------5-------4---8s9-|-------12---12-11--|
|-(2)-5h7---7-(7)---7-6s7-|-------10---10--9--|
|--0----------------------|-0-0-0----0--------|


E S S E S S E E E E e e e E e E Q
|-------------------------|--------------------|
|-------------------------|--------------------|
|-------------------------|--------------------|
|---------5-------4---8s9-|-------12---12-11---|
|-(2)-5h7---7-(7)---7-6s7-|-------10---10--9---|
|--0----------------------|-0-0-0----0---------|


E S S E S S E E E E e e e E e E Q
|-------------------------|-------------------|
|-------------------------|-------------------|
|-------------------------|-------------------|
|---------5-------4---8s9-|-------12---12-11--|
|-(2)-5h7---7-(7)---7-6s7-|-------10---10--9--|
|--0----------------------|-0-0-0----0--------|


E S S E S S E E E E e E E e e e E E
|-------------------------|-------------------|
|-------------------------|-------------------|
|-------------------------|-------------------|
|---------5-------4-------|--------------8-10-|
|-(2)-5h7---7-(7)---7-4s5-|---10S9-----8------|
|--0------------------2s3-|-0--8S7-0-6--------|


Pre-Chorus
E E E E E E E E E E E E E E Q Q E E Q E E +E E E E E E Q
||------------------|----------------|---------------|----------------------||
||o-----------------|----------------|---------------|---------------------o||
||------------------|----------------|---------------|----------2-----------||
||----------5-------|-5-4-----5---4--|----4------2---|----------------------||
||o-----7-------7---|-----6----------|-5----5-3------|-----4-5-(5)-5-5-4---o||
||--0-0---0---0---0-|-------7--------|-------------5-|-(5)-----------3-2----||


Gtr I
E E E E E E E E E E E E E E Q Q E E Q E E +E E E E E E Q
|-----------------|----------------|---------------|--------------------|
|-----------------|----------------|---------------|--------------------|
|-----------------|----------------|---------------|----------2---------|
|---------5-------|-5-4-----5---4--|----4------2---|--------------------|
|-----7-------7---|-----6----------|-5----5-3------|-----4-5-(5)-5-5-4--|
|-0-0---0---0---0-|-------7--------|-------------5-|-(5)-----------3-2--|
|
| Gtr II
| E E E E E E E E E E E E E E Q Q E E Q E E +E E E E E E Q
|-----------------|----------------|---------------|--------------------|
|-----------------|----------------|---------------|--------------------|
|-----------------|-4-3-----4---3--|---------------|----------2---------|
|---------5-------|-----5----------|----4------2---|--------------------|
|-----7-------7---|-------7--------|-5----5-3------|-----4-5-(5)-5-5-4--|
|-0-0---0---0---0-|----------------|-------------5-|-(5)-----------3-2--|


E E E E E E E E E E E E E E Q Q E E Q E E +E E E E E E Q
|-----------------|----------------|---------------|--------------------||
|-----------------|----------------|---------------|--------------------||
|-----------------|----------------|---------------|----------2---------||
|---------5-------|-5-4-----5---4--|----4------2---|--------------------||
|-----7-------7---|-----6----------|-5----5-3------|-----4-5-(5)-5-5-4--||
|-0-0---0---0---0-|-------7--------|-------------5-|-(5)-----------3-2--||
|
| E E E E E E E E E E E E E E Q Q E E Q E E +E E E E E E Q
|-----------------|----------------|---------------|--------------------||
|-----------------|----------------|---------------|--------------------||
|---------4-------|-4-3-----4---3--|---------------|----------2---------||
|-----5-------5---|-----5----------|----4------2---|--------------------||
|-----------------|-------7--------|-5----5-3------|-----4-5-(5)-5-5-4--||
|-0-0---0---0---0-|----------------|-------------5-|-(5)-----------3-2--||


Out-Chorus
Gtrs I, II
E S S E S S E E E E e e e E e E Q
||--------------------------|-------------------|
||o-------------------------|-------------------|
||--------------------------|-------------------|
||----------5-------4---8s9-|-------12---12-11--|
||o-(2)-5h7---7-(7)---7-6s7-|-------10---10--9--|
||---0----------------------|-0-0-0----0--------|


E S S E S S E E E E e e e E e E Q
|-------------------------|--------------------|
|-------------------------|--------------------|
|-------------------------|--------------------|
|---------5-------4---8s9-|-------12---12-11---|
|-(2)-5h7---7-(7)---7-6s7-|-------10---10--9---|
|--0----------------------|-0-0-0----0---------|


E S S E S S E E E E e e e E e E Q
|-------------------------|-------------------|
|-------------------------|-------------------|
|-------------------------|-------------------|
|---------5-------4---8s9-|-------12---12-11--|
|-(2)-5h7---7-(7)---7-6s7-|-------10---10--9--|
|--0----------------------|-0-0-0----0--------|


1.
E S S E S S E E E E e E E e e e E E
|-------------------------|--------------------||
|-------------------------|-------------------o||
|-------------------------|--------------------||
|---------5-------4-------|--------------8-10--||
|-(2)-5h7---7-(7)---7-4s5-|---10S9-----8------o||
|--0------------------2s3-|-0--8S7-0-6---------||


2.
2/4 4/4
PM------------------------------|
E S S E S S E E E E e E E e E E E E Q E E E E Q E E E E
|-------------------------|----------|-----------------|-------------------|
|-------------------------|----------|-----------------|-------------------|
|-------------------------|----------|-----------------|-------------------|
|---------5-------4-------|----------|-----8-10--------|-8-10--------8-10--|
|-(2)-5h7---7-(7)---7-4s5-|---10S9---|---8-----------8-|-----------8-------|
|--0------------------2s3-|-0--8S7-0-|-6-----------6---|---------6---------|


PM------------------------------|
E E E E Q E E E E Q E E E E
|-----------------|------------------||
|-----------------|------------------||
|-----------------|------------------||
|-----8-10--------|-8-10--------8-10-||
|---8-----------8-|-----------8------||
|-6-----------6---|---------6--------||


H.=H
>
W +W +W +W
|----------|------------|------------|--------:
|----------|------------|------------|--------:
|----------|------------|------------|--------:
|-2--------|-(2)--------|-(2)--------|-(2)----:
|-2--------|-(2)--------|-(2)--------|-(2)----:
|-0--------|-(0)--------|-(0)--------|-(0)----:


H.=H
Q Q Q Q Q Q Q Q
|-------------:-------------*|
|-------------:-------------*|
|-------------:-------------*|
|-2--2--2--2--:-2--2--2--2--*|
|-2--2--2--2--:-2--2--2--2--*|
|-0--0--0--0--:-0--0--0--0--*|



Duration Legend
---------------
W - whole; H - half; Q - quarter; E - 8th; S - 16th; T - 32nd; X - 64th; a - acciaccatura
+ - note tied to previous; . - note dotted; .. - note double dotted
Uncapitalized letters represent notes that are staccato (1/2 duration)
Irregular groupings are notated above the duration line
Duration letters will always appear directly above the note/fret number it represents the
duration for. Duration letters with no fret number below them represent rests. Multi-
bar rests are notated in the form Wxn, where n is the number of bars to rest for. Low
melody durations appear below the staff

Tablature Legend
----------------
h - hammer-on
p - pull-off
b - bend
pb - pre-bend
r - bend release (if no number after the r, then release immediately)
/\ - slide into or out of (from/to "nowhere")
s - legato slide
S - shift slide
- natural harmonic
[n] - artificial harmonic
n(n) - tapped harmonic
~ - vibrato
tr - trill
T - tap
TP - trem. picking
PM - palm muting
\n/ - tremolo bar dip; n = amount to dip
\n - tremolo bar down
n/ - tremolo bar up
/n\ - tremolo bar inverted dip
= - hold bend; also acts as connecting device for hammers/pulls
- volume swell (louder/softer)
x - on rhythm slash represents muted slash
o - on rhythm slash represents single note slash

Misc Legend
-----------
| - bar
|| - double bar
||o - repeat start
o|| - repeat end
*| - double bar (ending)
: - bar (freetime)
$ - Segno
& - Coda
Tempo markers - = BPM(8/16=s8/s16), where s8 = swing 8ths, s16 = swing 16ths



Like us on Facebook.....
-> Loading Time :0.0399 sec