Antes de Que Nos Olviden Tabs & Lyrics by Caifanes

Antes de Que Nos Olviden

guitar tabs lyrics

Caifanes

Album : El Diablito rock PlayStop


-=Intro=-
-=G=- (Este intro se mantiene durante la parte de la segunda guitarra.)
e|-----------------------------------------------------------|]
B|-----------------------------------------------------------|]
G|-----------------------------------------------------------|]
D|--7-7-7-7-7-5----7-7-7-7-9-11-—7-7-7-7-7-5---7-7-7-7-9-11--|]
A|---------------9----------------------------9--------------|]
E|-----------------------------------------------------------|]
-=G2=-
A

e|------------------------1-1--------------------------------------|]
B|--3-2-2-2---3-3—2-2-2---2-2-3-3-3-2-2-0-0---0-0-2-2-2-3-3-3-2-2--|]
G|--2-2-2-2---2-2—2-2-2---2-2-2-2-2-2-2-2-2---2-2-2-2-2-2-2-2-2-2--|]
D|--2-2-2-2---2-2—2-2-2---2-2-2-2-2-2-2-2-2---2-2-2-2-2-2-2-2-2-2--|]
A|--0-0-0-0---0-0-0-0-0---0-0-0-0-0-0-0-0-0---0-0-0-0-0-0-0-0-0-0—-|]
E|-----------------------------------------------------------------|]

-=G1=- Hace un rasgueo rápido en las notas correspondientes, la segunda
guitarra acompaña la canción con ritmo y arpegio según la nota.
e|----------------------------------------------------------------|]
B|----------------------------------------------------------------|]
G|----------------------------------------------------------------|]
D|----------------------------------------------------------------|]
A|-7-7-7-7-7-7-7-7-7-7-7-7-7-7-7-7-7-7-7-7-7-7-7-7-7-7-7-7-7-7-7—-|] pm de fondo
E|-5-5-5-5-5-5-5-5-5-5-5-5-5-5-5-5-5-5-5-5-5-5-5-5-5-5-5-5-5-5-5--|]

A Amaj7 A7
Antes de que nos olviden
D|—-7-7-7-7-7-7-7--|] pm
A|--5-5-5-5-5-5-5--|]
D Dm
haremos historia

Like us on Facebook.....
-> Loading Time :0.0077 sec