Animal Bar Tabs & Lyrics by Red Hot Chili Peppers

Animal Bar

guitar tabs lyrics

Red Hot Chili Peppers

Album : Stadium Arcadium albums i own PlayStop


Song: Animal Bar (solo)
Artist: Red Hot Chili Peppers
Albums: Stadium Arcadium (2006)


No one else had the solo tabbed yet so I decided to post it. This is guarenteed 100%
I tried to show timing as best as I could but it's a lot easier to just listen to the song.

Tempo: Moderately - 148 (although the solo in particular has what is described as a
feel")


Tuning: Standard


Solo

D G/D
e-----14h15p14p12------14---------------------17-----------15-------------14----------|
B-------------------------------------------------------------------------------------|
G-------------------------------------/16-----------14-------------12-----------------|
D-------------------------------------------------------------------------------------|
A-------------------------------------------------------------------------------------|
E-------------------------------------------------------------------------------------|


e-------------12-------------------------------------------------------------------------|
B-----------------------------15-----------------14-----------------12-----(12)\10-------|
G-----11---------------------------------------------------------------------------------|
D--------------------14----------------12-----------------11-----------------------------|
A----------------------------------------------------------------------------------------|
E----------------------------------------------------------------------------------------|

A/D
e----------------------------------------------------------------------------------------|
B-------------10----(10)-----------8----(8)\7--------------7--------------7h8p7-------7--|
G----------------------------------------------------------------------------------------|
D-----9---------------------7------------------------5--------------5--------------------|
A----------------------------------------------------------------------------------------|
E----------------------------------------------------------------------------------------|

G/D
e---------------------------------------10----------9-------------14--|
B------7h8h10p8p7-------7-------(7)h8----------7h8--------------------|
G----------------------------------------------------------11h12------|
D---------------------------------------------------------------------|
A---------------------------------------------------------------------|
E---------------------------------------------------------------------|

D
e--------------14h15p14-----14------14-----(14)/19-----19-----19----(19)---17\14---14---|
B---------------------------------------------------------------------------------------|
G--11h12--------------------------------------------------------------------------------|
D---------------------------------------------------------------------------------------|
A---------------------------------------------------------------------------------------|
E---------------------------------------------------------------------------------------|

let ring - - - -| G/D
e--------------17----15h17p15p14----15---14h15p14---\12----12h14--------------------|
B--19h20----------------------------------------------------------------17b17(17rb)-|
G-----------------------------------------------------------------------------------|
D-----------------------------------------------------------------------------------|
A-----------------------------------------------------------------------------------|
E-----------------------------------------------------------------------------------|

A/D
e-------------------------------------------------------------------------------------|
B--15h17p15\14h15-----15----14h15p14-------------------------------------12b(12rb)p10-|
G-------------------------------------------------16-----14h16p14---(14)--------------|
D-------------------------------------------------------------------------------------|
A-------------------------------------------------------------------------------------|
E-------------------------------------------------------------------------------------|

G/D D
e-------------------------------------------------------------------------------------|
B-------------------------------------------------------------------------------------|
G---11~~~~~~~~11-----7/9----9b(9rb)p7h9p7-----(7)\6----(6)-------(6)\-----------------|
D-------------------------------------------------------------------------------------|
A-------------------------------------------------------------------------------------|
E-------------------------------------------------------------------------------------|

-chodge

http://myspace.com/connorhodgelovesyou

Like us on Facebook.....
-> Loading Time :0.0078 sec