And One Tabs & Lyrics by LINKIN PARK

And One

guitar tabs lyrics

LINKIN PARK

Album : Splitting the DNAPlayStop


Band: Linkin Park
Song: And One (like at H.O.B.)

Tuning: DROPPED D |-Db-Ab-Db-Gb-Bb-Eb|

Ontro * 2 Times *
|---------------------------------|---------------------------------|
|---------------------------------|---------------------------------|
|---------------------------------|---------------------------------|
|---------------------------------|---------------------------------|

|-----------------------------7---|----------------------------12---|
|-0-0---0---0-8-8---8---8-8-------|-0-0---0---0-8-8---8---8-8-------|
P.M.. . . . . . . . . . . . . . . . .
*
|---------------------------------|---------------------------------|
|---------------------------------|---------------------------------|
|---------------------------------|---------------------------------|
|---------------------------------|---------------------------------|
|-----------------------------7---|---------------------------------|
|-0-0---0---0-8-8---8---8-8-------|-0-0---0---0-8-8---8---8-8-------|
. . . . . . . . . . . . . . . . . .

Verse * 2 Times *
|---------------------------------|---------------------------------|
|---------------------------------|---------------------------------|
|---------------------------------|---------------------------------|
|---------------------------------|---------------------------------|
|-0-0---0---0-8-8---8---8-8---7---|-0-0---0---0-8-8---8---8-8--12---|
|-0-0---0---0-8-8---8---8-8-------|-0-0---0---0-8-8---8---8-8-------|
. . . . . . . . . . . . . . . . . .
*
|---------------------------------|---------------------------------|
|---------------------------------|---------------------------------|
|---------------------------------|---------------------------------|
|---------------------------------|---------------------------------|
|-0-0---0---0-8-8---8---8-8---7---|-0-0---0---0-8-8---8---8-8-------|
|-0-0---0---0-8-8---8---8-8-------|-0-0---0---0-8-8---8---8-8-------|
. . . . . . . . . . . . . . . . . .

Chorus 2 Times
|---------------------------------|---------------------------------|
|---------------------------------|---------------------------------|
|---------------------------------|----------10--------10--10--1010-|
|-0---------0---------------------|-8--------10--------10--10--1010-|
|-0---------0---------------------|-8---------8---------8---8---8-8-|
|-0---------0---------------------|-8---------8---------8---8---8-8-|

|---------------------------------|---------------------------------|
|---------------------------------|---------------------------------|
|---------------------------------|---------------------------------|
|-3---------3---------3---3---3-3-|-1---1---1-1---1---1-1---1-1-1-1-|
|-3---------3---------3---3---3-3-|-1---1---1-1---1---1-1---1-1-1-1-|
|-3---------3---------3---3---3-3-|-1---1---1-1---1---1-1---1-1-1-1-|
Verse * *
|---------------------------------|---------------------------------|
|---------------------------------|---------------------------------|
|---------------------------------|---------------------------------|
|---------------------------------|---------------------------------|
|-0-0---0---0-8-8---8---8-8---7---|-0-0---0---0-8-8---8---8-8--12---|
|-0-0---0---0-8-8---8---8-8-------|-0-0---0---0-8-8---8---8-8-------|
. . . . . . . . . . . . . . . . . .
* *
|---------------------------------|---------------------------------|
|---------------------------------|---------------------------------|
|---------------------------------|---------------------------------|
|---------------------------------|-----------------------------7---|
|-0-0---0---0-8-8---8---8-8---7---|-0-0---0---0-8-8---8---8-8-------|
|-0-0---0---0-8-8---8---8-8-------|-0-0---0---0-8-8---8---8-8-------|
. . . . . . . . . . . . . . . . . .
* *
|---------------------------------|---------------------------------|
|---------------------------------|---------------------------------|
|-----------------------------7---|---------------------------------|
|---------------------------------|----------------------------12---|
|-0-0---0---0-8-8---8---8-8-------|-0-0---0---0-8-8---8---8-8-------|
|-0-0---0---0-8-8---8---8-8-------|-0-0---0---0-8-8---8---8-8-------|
. . . . . . . . . . . . . . . . . .
*
|---------------------------------|---------------------------------|
|---------------------------------|---------------------------------|
|----------------------------12---|---------------------------------|
|---------------------------------|---------------------------------|
|-0-0---0---0-8-8---8---8-8-------|-0-0---0---0-8-8---8---8-8-------|
|-0-0---0---0-8-8---8---8-8-------|-0-0---0---0-8-8---8---8-8-------|
. . . . . . . . . . . . . . . . . .

Chorus 2 Times
|---------------------------------|---------------------------------|
|---------------------------------|---------------------------------|
|---------------------------------|----------10--------10--10--1010-|
|-0---------0---------------------|-8--------10--------10--10--1010-|
|-0---------0---------------------|-8---------8---------8---8---8-8-|
|-0---------0---------------------|-8---------8---------8---8---8-8-|

|---------------------------------|---------------------------------|
|---------------------------------|---------------------------------|
|---------------------------------|---------------------------------|
|-3---------3---------3---3---3-3-|-1---1---1-1---1---1-1---1-1-1-1-|
|-3---------3---------3---3---3-3-|-1---1---1-1---1---1-1---1-1-1-1-|
|-3---------3---------3---3---3-3-|-1---1---1-1---1---1-1---1-1-1-1-|


Bridge
|---------------------------------|---------------------------------|
|---------------------------------|---------------------------------|
|-----------------------------4---|-----------------------------9---|
|---------0---------------3---4---|---------0---------------3---9---|
|-0-0---0-0---------------3---2---|-0-0---0-0---------------3---7---|
|-0-0---0-0---------------3-------|-0-0---0-0---------------3-------|
P.M.. . . . .
|---------------------------------|---------------------------------|
|---------------------------------|---------------------------------|
|-----------------------------4---|---------------------------------|
|---------0---------------3---4---|---------0-----------------------|
|-0-0---0-0---------------3---2---|-0-0---0-0-----------------------|
|-0-0---0-0---------------3-------|-0-0---0-0-----------------------|
. . . . . .
Then 2 Times
|---------------------------------|---------------------------------|
|---------------------------------|---------------------------------|
|-----------------------------4---|----------------------------9----|
|-----------------------------4---|----------------------------9----|
|-0-0---0---0-8-8---8---8-8---2---|-0-0---0---0-8-8---8---8-8--7----|
|-0-0---0---0-8-8---8---8-8-------|-0-0---0---0-8-8---8---8-8-------|
. . . . . . . . . . . . . . . . . .
|---------------------------------|---------------------------------|
|---------------------------------|---------------------------------|
|-----------------------------4---|---------------------------------|
|-----------------------------4---|---------------------------------|
|-0-0---0---0-8-8---8---8-8---2---|-0-0---0---0-8-8---8---8-8-------|
|-0-0---0---0-8-8---8---8-8-------|-0-0---0---0-8-8---8---8-8-------|
. . . . . . . . . . . . . . . . . .

Chorus 2 Times
|---------------------------------|---------------------------------|
|---------------------------------|---------------------------------|
|---------------------------------|----------10--------10--10--1010-|
|-0---------0---------------------|-8--------10--------10--10--1010-|
|-0---------0---------------------|-8---------8---------8---8---8-8-|
|-0---------0---------------------|-8---------8---------8---8---8-8-|

|---------------------------------|---------------------------------|
|---------------------------------|---------------------------------|
|---------------------------------|---------------------------------|
|-3---------3---------3---3---3-3-|-1---1---1-1---1---1-1---1-1-1-1-|
|-3---------3---------3---3---3-3-|-1---1---1-1---1---1-1---1-1-1-1-|
|-3---------3---------3---3---3-3-|-1---1---1-1---1---1-1---1-1-1-1-|

Outro 2 Times
|---------------------------------|---------------------------------|
|---------------------------------|---------------------------------|
|---------------------------------|----------10--10--1010--10101010-|
|-0---0---0-0---0---0-0---0-0-0-0-|-8---8---810--10--1010--10101010-|
|-0---0---0-0---0---0-0---0-0-0-0-|-8---8---8-8---8---8-8---8-8-8-8-|
|-0---0---0-0---0---0-0---0-0-0-0-|-8---8---8-8---8---8-8---8-8-8-8-|

|---------------------------------|---------------------------------|
|---------------------------------|---------------------------------|
|---------------------------------|---------------------------------|
|-3---3---3-3---3---3-3---3-3-3-3-|-1---1---1-1---1---1-1---1-1-1-1-|
|-3---3---3-3---3---3-3---3-3-3-3-|-1---1---1-1---1---1-1---1-1-1-1-|
|-3---3---3-3---3---3-3---3-3-3-3-|-1---1---1-1---1---1-1---1-1-1-1-|

then
|---------------------------------|
|---------------------------------|
|---------------------------------|
|---------------------------------|
|-0-0---0-0-----------------------|
|-0-0---0-0-----------------------|
P.M.. . .

Like us on Facebook.....
-> Loading Time :0.0086 sec