...and Justice for All Tabs & Lyrics by Metallica

...and Justice for All

guitar tabs lyrics

Metallica

Album : …and Justice for AllPlayStop


Transcribed by www.mikesguitarsite.co.uk

Words & Music by James Hetfield, Lars Ulrich & Kirk Hammett

E x 7 6 4 x x
D x 5 4 2 x x
C x 3 2 0 x x
Bm x 2 0 x x x

Bb x 1 0 x x x

Bb5 x 1 3 x x x
A5 x 0 2 2 x x
G5 3 5 5 x x x

F5 x 8 10 x x x
E5 x 7 9 x x x
D5 x 5 7 x x x
C5 x 3 5 x x x

E5II 0 2 2 x x x
E5VII 0 7 9 9 x x
F5I 1 3 3 x x x
F#5 2 4 4 x x x

B5 x 2 4 4 x x
CIII x 3 5 5 5 x
Bb(type 2) x 1 3 3 3 x
DV x 5 7 7 7 x

B# x 1 2 x x x
C5(type 2) x 3 5 5 x x
D5(type 2) x 5 7 7 x x



Gtr I, II (E A D G B E) - 'James Hetfield - Rhythm w/dist (clean on intro)'
Gtr III, IV (E A D G B E) - 'James Hetfield - Rhythm w/dist'
Gtr V (E A D G B E) - 'Kirk Hammett - Lead w/dist'

Intro
Q=96
3/4
Gtr II
|-Rhy Fig 1A (Rhythm slashes) end Rhy Fig 1A-|
E D C
Q. E +Q Q. E +E E Q. E +Q
| | | | | | | | | |
/ / / / / / / / / /
Gtr I
|-3-| |-3-|
E E Q E S S S E E E E E E E E Q E S S S
||---------------------|----------------|--------------------|
||o--------------------|----------------|--------------------|
||---------------------|----------------|--------------------|
||--6--7-9----7--6h7p6-|-4--5-5-4--7--4-|-2--3-5----3--2h3p2-|
||o-7------7-(7)-------|-5------5-(5)-5-|-3------3-(3)-------|
||--0------------------|----------------|--------------------|
Q. E +Q Q. E +E E Q. E +Q
|-Rhy Fig 1 end Rhy Fig 1-|

Bm Bb Bb5
Q. E +E E Q. E +Q H.
| | | | | | | |
/ / / / / / / /

E E E E E E E E E E E E H.
|----------------|----------------|--------||
|----------------|----------------|-------o||
|----------------|--------------2-|--------||
|-0--2-2-0--2--0-|-0--2-2-0--2----|-3------||
|-2------2-(2)-2-|-1------1-(1)---|-1-----o||
|----------------|----------------|--------||
Q. E +E E Q. E +Q



w/Rhy FIg 1 + 1A
Gtrs III, IV
~~~~~~~~~~ ~~~ ~~~~~~~
E E E E +E E E E E S S Q E E E E +E E
||-------------------------|-------------------|------------------------|
||o----5-7-7b9==(7)r-7-----|-------7-7h8--7----|------------------------|
||--4------9----(9)--9-----|----7/-7-7-9--7----|----5--7--9--(9)--7-----|
||--6--7-9-----------------|-7--7/-------------|-5-------10-(10)--------|
||o------------------------|-9-----------------|-7--8-10---------10-----|
||-------------------------|-------------------|------------------------|
E E E E +E E E E E S S Q E E E E +E E


1. 2.
Gtr II
Bb5 Bb5
W W H +E E H.
| | |
/ / /

Gtrs I, II Gtr I
PM----------------------|
E E E E E E E E E E E E Q Q e E Q Q Q
|-------------|-------------|-------------||------------|
|-------------|-------------|------------o||------------|
|-------------|-----------2-|-3--3---3----||-3---3--3/--|
|-0-2-2-0-2-0-|-0-2-2-0-2---|-3--3---3----||-3---3--3/--|
|-2-2-2-2-2-2-|-1-1-1-1-1---|-1--1---1---o||-1---1--1/--|
|-------------|-------------|-------------||------------|


Gtrs III, IV
~~ ~~
|-3--| |-3-|
E E Q E S S S E E S S E E E E E Q E S S S
|-------------------|-----------5---|----------------|
|-------9----8h10p8-|-----x-7---7-7-|-----5----5h6p5-|
|----9--9----9-11-9-|---7-x-7-7-7-7-|---5-5--5-5-7-5-|
|--9-9--------------|-9-7-----7---7-|-5-5----5-------|
|-11----------------|-9-------------|-7--------------|
|-------------------|---------------|----------------|
| E E Q E S S S E E S S E E E E E Q E S S S
| |-3--| |-3-|
|
| Gtrs I, II
| ~~~~~~~~~~~~~~~~~~~~~~~~~~~~~~~~~~~~ PMPM
| |-3--| |-3-|
| E E Q E S S S E E S S E E E E E Q E S S S
|-------------------|---------------|----------------|
|-------------------|---------------|----------------|
|-------------------|---------------|----------------|
|--6-7--9----6h=7p6-|-4-5-7-7-4-7-4-|-2-3-5--4-2h3p2-|
|--7---11--7-7------|-5-5-5-5-5-5-5-|-3-3-7--3-3-----|
|--0-0--0--0--------|---------------|----------------|
E E Q E E E E Q E E


4/4
~~
E E E E E E E E E E E E H. Q
|---------------------|---------------|------------||
|---5-------5-----5---|-3-------3-----|-3----------||
|-4-------------4-----|---3-------3-1-|-3----------||
|-0-2-----0h2-0h2-0h2-|-0-2-----2-2-2-|-3----------||
|---------------------|---------------|------------||
|---------------------|---------------|------------||
| E E E a E a E S S E E E E E E
|
| E E S S E E E E E S S E E E H. Q
|---------------------|---------------|------------||
|---------------------|---------------|------------||
|-4-4-x-4---4---4-4---|-3-3-x-3-3-3-3-|-3----------||
|-0-2-x-2---2---2-2---|-0-2-x-2-2-2-2-|-3----------||
|-2-2-x-2---2---2-2---|-1-1-x-1-1-1-1-|-1----------||
|---------------------|---------------|------------||


Faster Q=160 Faster Q=168
Gtr III
Bb5 A5 G5 F5E5
W W E E Q E E Q E E Q E E Q
| | | | |
/ / / / /
Gtrs I, II
PM--------------------------|
E E E E E E E E Q E E E E Q E E E E E E E E E E E E E E Q
|-----------------|---------------||-----------------|----------------|
|-----------------|---------------||-----------------|----------------|
|-----------------|---------------||-3-2-----2-------|----------------|
|---8-7-----8-7-6-|----8-7-6-5----||-3-2-5-3-2-5-3-2-|-5-3-2---3-2----|
|---8-7-----8-7-6-|----8-7-6-5----||-----5-3---5-3-2-|-5-3-2-5-3-2----|
|---6-5-----6-5-4-|----6-5-4-3----||-----------------|-------5--------|


F5 E5 D5 C5 E5II D5 E5VII
Q Q Q Q E E Q E E Q W +W +W
| | | | | | | | |
/ / / / / / / / /
PM------------|
Q Q Q Q E E E E E E E E W +W +W
|-------------|-----------------|----------|------------|--------|
|-------------|-----------------|----------|------------|--------|
|-------------|-----------------|----------|------------|--------|
|-3--2--------|-2---------------|-2--------|-(2)--------|-(2)----|
|-3--2--5--3--|-2-5-3-2-5-3-2-0-|-2--------|-(2)--------|-(2)----|
|-------5--3--|---5-3-2-5-3-2-0-|-0--------|-(0)--------|-(0)----|


2/4 4/4
+W +W +H +W
| | | |
/ / / /
+W +W +H +W
|------------|------------|--------|------------|
|------------|------------|--------|------------|
|------------|------------|--------|------------|
|-(2)--------|-(2)--------|-(2)----|-(2)--------|
|-(2)--------|-(2)--------|-(2)----|-(2)--------|
|-(0)--------|-(0)--------|-(0)----|-(0)--------|


2/4 4/4
+W +W +H +W
| | | |
/ / / /
+W +W +H +W
|------------|------------|--------|--------||
|------------|------------|--------|--------||
|------------|------------|--------|--------||
|-(2)--------|-(2)--------|-(2)----|-(2)----||
|-(2)--------|-(2)--------|-(2)----|-(2)----||
|-(0)--------|-(0)--------|-(0)----|-(0)----||


2/4 4/4
Gtrs I, II
PM| PM| ~ PM| ~
E E Q E E Q E a Q E Q Q E E Q E a Q E Q Q 4x
||----------------|----------------|--------|-----------------||
||o---------------|----------------|--------|----------------o||
||----------------|----------------|--------|-----------------||
||--8-8-7--8-8-7--|----------------|-8-8-7--|-----------------||
||o-8-8-7--8-8-7--|---5h7--7-5-----|-8-8-7--|---5h7--7-5-----o||
||--6-6-5--6-6-5--|-0-----------7--|-6-6-5--|-0-----------7---||
|-Rhy Fig A end Rhy Fig A-|

Gtrs I, II
E5
W W
|
/

Gtrs III, IV
PM| PM|
E E Q E E Q E Q E S +E. Q
|---------------||------------------------------|
|---------------||---10b12--10b12-10b12r(10)-8--|
|---------------||---11b12--11b12-11b12r(11)-9--|
|-8-8-7--8-8-7--||------------------------------|
|-8-8-7--8-8-7--||------------------------------|
|-6-6-5--6-6-5--||------------------------------|
E Q E S +E. Q


A5
2/4 4/4
+H W
| |
/ /

E E Q E Q E S +E. Q
|----------|------------------------------|
|----------|---10b12--10b12-10b12r(10)-8--|
|-11-11-9--|---11b12--11b12-11b12r(11)-9--|
|-10-10-9--|------------------------------|
|----------|------------------------------|
|----------|------------------------------|
E E Q E Q E S +E. Q


E5
4/4
+W W
| |
/ /

E E Q E E Q E Q E S +E. Q
|------------------|------------------------------|
|--7--7-----7-8----|---10b12--10b12-10b12r(10)-8--|
|-------7-----7-9--|---11b12--11b12-11b12r(11)-9--|
|-10-10-7--10---9--|------------------------------|
|------------------|------------------------------|
|------------------|------------------------------|
E E Q E E Q E Q E S +E. Q


A5
2/4 4/4
+H W
| |
/ /

E E Q E Q E S +E. Q
|----------|------------------------------|
|----------|---10b12--10b12-10b12r(10)-8--|
|-11-11-9--|---11b12--11b12-11b12r(11)-9--|
|-10-10-9--|------------------------------|
|----------|------------------------------|
|----------|------------------------------|
E E Q E Q E S +E. Q


F5I E5II
+H E E Q
| | | |
/ / / /
E E Q E E Q
|------------------||--
|--7--7-----7-8----||o-
|-------7-----7-9--||-- Rhy Fig A (last 3 bars)
|-10-10-7--10---9--||--
|------------------||o-
|------------------||--
E E Q E E Q


Rhy Fig A


2/4
PM| PM| PM|
E E Q E E E E E E E E q Q E E Q
|----------------||---------------|--------|
|----------------||---0-----0--0--|--------|
|----------------||---1---x-1--1--|-----2--|
|-8-8-7----------||---2---x-2--2--|-----3--|
|-8-8-7--5-5-4---||---2---x-2--2--|-2-2-3--|
|-6-6-5--3-3-2p0-||-0-0---x-0--0--|-0-0-1--|
|-Rhy Fig 2

4/4
PM PM PM PM|
E E E E E E Q E E Q E E Q E E E E q Q
|-----------------|---------------|----------------|
|---0-----0-------|---------------|---0-----0--0---|
|---1---x-1---1/--|---------------|---1---x-1--1---|
|---2---x-2---2/--|-8-8-7--8-8-7--|---2---x-2--2---|
|---2---x-2---2/--|-8-8-7--8-8-7--|---2---x-2--2---|
|-0-0---x-0-0-0---|-6-6-5--6-6-5--|-0-0---x-0--0---|


2/4 4/4
PM| PM PM PM PM|
E E Q E E E E E E Q E E Q E E Q
|--------|-----------------|----------------||
|--------|---0-----0-------|----------------||
|-----2--|---1---x-1---1/--|----------------||
|-----3--|---2---x-2---2/--|-8-8-7--8-8-8\--||
|-2-2-3--|---2---x-2---2/--|-8-8-7--8-8-8\--||
|-0-0-1--|-0-0---x-0-0-0---|-6-6-5--6-6-6\--||
end Rhy Fig 2-|

Verses
$
Rhy Fig 2 x2


Pre-Chorus
PM------------| PM--------| PM--------|
E E E E E E E E Q E E E E E E E E E a E +Q a Q Q E E E E E E
|-----------------||----------------|---------------------|------------------|
|-----------------||----------------|---------------------|------------------|
|-----------------||----------------|---------------------|------------------|
|-----------------||-4--------------|-5s4-2-4s5-(5)--4s5--|-4----------------|
|-7-7-7-7-7-5-5-5-||-4--4-4-4-4-4-4-|-5s4-2-4s5-(5)--4s5--|-4--4-4-4-4-4-4---|
|-0-0-0-0-0-3-3-3-||-2--2-2-2-2-2-2-|-3s2-0-2s3-(3)--2s3--|-2--2-2-2-2-2-2---|
|-Rhy Fig 3

PM--------|
E E E a E +Q a Q Q E E E E E E E E E a E +Q a Q
|---------------------|----------------|---------------------|
|---------------------|----------------|---------------------|
|---------------------|----------------|---------------------|
|-5s4-2-4s5-(5)--4s5--|-4--------------|-5s4-2-4s5-(5)--5s7--|
|-5s4-2-4s5-(5)--4s5--|-4--4-4-4-4-4-4-|-5s4-2-4s5-(5)--5s7--|
|-3s2-0-2s3-(3)--2s3--|-2--2-2-2-2-2-2-|-3s2-0-2s3-(3)--3s5--|


PM--------|
|-3-| |-3-| |-3-| |-3-|
Q E E E E E E E E E E E E E E E E E E
|----------------|-------------------------|
|----------------|-------------------------|
|----------------|-0h5h7-------------------|
|-4--------------|-------0h5h7-------------|
|-4--4-4-4-4-4-4-|-------------0h5h7-0h2h3-|
|-2--2-2-2-2-2-2-|-------------------------|
|-Riff A end Riff A-|
end Rhy Fig 3-|

Rhy Fig 3
Riff A


Chorus
PM--------|
Q E E E E E E E E E a E +Q a Q W
|----------------|---------------------||------|
|----------------|---------------------||-2----|
|-4--------------|-5s4---4s5-(5)--4s5--||-2----|
|-2--------------|-3s2-0-2s3-(3)--2s3--||-2----|
|-2--2-2-2-2-2-2-|-3s2-0-2s3-(3)--2s3--||-0----|
|-0--0-0-0-0-0-0-|---------------------||------|


PM--------|
W H +E E Q Q E E E E E E E E E a E +Q a Q
|----------|---------------|----------------|-----------------------|
|----------|---------------|----------------|-----------------------|
|-4--------|-5----(5)------|----------------|-5s4---4s5-(5)--4s5----|
|-4--------|-5----(5)---3--|-2--------------|-3s2-0-2s3-(3)--2s3----|
|-2--------|-3----(3)p0-3--|-2--2-2-2-2-2-2-|-3s2-0-2s3-(3)--2s3----|
|----------|------------1--|-0--0-0-0-0-0-0-|-----------------------|


PM--------|
W H. Q Q E E E E E E
|----------|------------|----------------|
|-2--------|------------|----------------|
|-2--------|-4----------|----------------|
|-2--------|-4-------3--|-2--------------|
|-0--------|-2-------3--|-2--2-2-2-2-2-2-|
|----------|---------1--|-0--0-0-0-0-0-0-|


E E E a E +Q a Q W W W
|---------------------|----------|----------|------|
|---------------------|-2--------|----------|-3----|
|-5s4---4s5-(5)--4s5--|-2--------|-4--------|-0----|
|-3s2-0-2s3-(3)--2s3--|-2--------|-4--------|-0----|
|-3s2-0-2s3-(3)--2s3--|-0--------|-2--------|------|
|---------------------|----------|----------|-3----|


1.,D.S. 2.
To Coda
PM| PM|
W H. Q E E Q E E Q H. Q
|----------|-------------|----------------||-------------|
|----------|-------------|---------------o||-------------|
|-5--------|-------------|----------------||-------------|
|-5--------|-3-------3/--|-8-8-7--8-8-7---||-3-------3/--|
|-3--------|-3-------3/--|-8-8-7--8-8-7--o||-3-------3/--|
|----------|-1-------1/--|-6-6-5--6-6-5---||-1-------1/--|


Rhy Fig A x2


|-3-| |-3-|
Q Q Q Q Q Q Q Q Q Q E E E E H
|-------------|-------------|--------------|
|-------------|-------------|--------------|
|-------------|-------------|--------------|
|-8-----8-7---|----8-7-6----|-8-7-6-5------|
|-8-----8-7---|----8-7-6----|-8-7-6-5------|
|-6-----6-5---|----6-5-4----|-6-5-4-3------|


Gtr III
Bb5 A5 G5 F5E5 F5 E5 D5 C5
E E Q E E Q E E Q E E Q Q Q Q Q
| | | | | | | | |
/ / / / / / / / /
Gtrs I, II
PM--------------------------|
E E E E E E E E E E E E E E Q Q Q Q Q
|-----------------|----------------|-------------|
|-----------------|----------------|-------------|
|-3-2-----2-------|----------------|-------------|
|-3-2-5-3-2-5-3-2-|-5-3-2---3-2----|-3--2--------|
|-----5-3---5-3-2-|-5-3-2-5-3-2----|-3--2--5--3--|
|-----------------|-------5--------|-------5--3--|


E5II D5 E5VII
E E Q E E Q W W
| | |
/ / /

Gtrs I, II, III
PM------------|
|-3-| |-3-| |-3-| |-3-|
E E E E E E E E W E E E E E E E E E E E E
|-----------------|----------|-------------------------||
|-----------------|-0--------|-------------------------||
|-----------------|-1--------|-------------------0h5h7-||
|-2---------------|-2--------|-------------0h5h7-------||
|-2-5-3-2-5-3-2-0-|-2--------|-0h2h3-0h5h7-------------||
|---5-3-2-5-3-2-0-|-0--------|-------------------------||


Interlude
Gtr V
Q. Q +E Q Q. Q +E Q
|--------------------|------------------------|
|----------------8---|-7----------------------|
|--------9---(9)-----|---------9-----(9)---7--|
|-/9-----------------|------------------------|
|--------------------|------------------------|
|--------------------|------------------------|
|
| Gtrs I, II
| PM----------|
| Q E E E E E E E E E a E +Q a Q
|--------------------|------------------------|
|--------------------|------------------------|
|--4-----------------|-5s4---4s5-(5)-----4s5--|
|--2-----------------|-3s2-0-2s3-(3)-----2s3--|
|--2---2-2-2--2--2-2-|-3s2-0-2s3-(3)-----2s3--|
|--0---0-0-0--0--0-0-|------------------------|
|-Rhy Fig 4

~~~~~~ ~~
|-3--|
Q E E +E E S S E E E E E S S S Q.
|--------------------|-----------------------------|
|--------------------|-----------------------------|
|-5--4-4-(4)-4-5p4---|-4---------------------------|
|------------------7-|---7-5---3--3h=5p3s2---------|
|--------------------|-----------------------------|
|--------------------|-----------------------------|
|
| PM------------|
| Q E E E E E E E E E a E +Q a Q
|--------------------|-----------------------------|
|--------------------|-----------------------------|
|-4------------------|-5s4---4s5-(5)--------4s5----|
|-2------------------|-3s2-0-2s3-(3)--------2s3----|
|-2--2-2--2--2-2---2-|-3s2-0-2s3-(3)--------2s3----|
|-0--0-0--0--0-0---0-|-----------------------------|


Q. Q +E Q Q. Q +E Q
|--------------------|------------------------|
|----------------8---|-7----------------------|
|--------9---(9)-----|---------9-----(9)---7--|
|-/9-----------------|------------------------|
|--------------------|------------------------|
|--------------------|------------------------|
|
| PM----------|
| Q E E E E E E E E E a E +Q a Q
|--------------------|------------------------|
|--------------------|------------------------|
|--4-----------------|-5s4---4s5-(5)-----4s5--|
|--2-----------------|-3s2-0-2s3-(3)-----2s3--|
|--2---2-2-2--2--2-2-|-3s2-0-2s3-(3)-----2s3--|
|--0---0-0-0--0--0-0-|------------------------|


~~~~~~
Q E E +E E S S E E E Q H
|--------------------|----------------------------|
|--------------------|----------------------------|
|-5--4-4-(4)-4-5p4p0-|----------------------------|
|--------------------|-2s==3----------------------|
|--------------------|----------------------------|
|--------------------|----------------------------|
|
| PM------------|
| Q E E E E E E
|--------------------|
|--------------------|

|-4------------------| w/Riff A
|-2------------------|
|-2--2-2--2--2-2---2-|
|-0--0-0--0--0-0---0-|
end Rhy Fig 4-|

w/Rhy Fig 4
Q. Q +E Q Q. E +E S S Q
|--------------------|------------------------|
|----------------8---|-7-------5-(5)-7p5p==3--|
|--------9---(9)-----|------------------------|
|-/9-----------------|------------------------|
|--------------------|------------------------|
|--------------------|------------------------|


Q. Q +E a Q Q. E +E S S Q
|----------------------|--------------------------|
|---------------8h10---|-8-------7-(7)h8p7s==5----|
|-------9---(9)--------|--------------------------|
|-9--------------------|--------------------------|
|----------------------|--------------------------|
|----------------------|--------------------------|


|--3---| |---3----| |-3-|
Q. Q +E Q E E E E E E S S S S E E E
|---------------------|-------------------------------------------|
|----------------12---|-12p10p==8-12p10p====8-12p=10p8s7---10p8p7-|
|--------9---(9)------|-------------------------------------------|
|-/9------------------|-------------------------------------------|
|---------------------|-------------------------------------------|
|---------------------|-------------------------------------------|


|-3-| |--3--|
E E E E E E S S S S S S E
|--------------------------------|
|--------------------------------|
|-11p9p7-11p9p==7-11p9p7s5-9p7p5-|
|--------------------------------|
|--------------------------------|
|--------------------------------|


Gtrs I, II
Riff A x2

PM| PM|
E E Q E E Q
|----------------||
|----------------||
|-5-5-4--5-5-4---||
|-5-5-4--5-5-4---||
|-3-3-2--3-3-2---||
|----------------||


Guitar Solo
2/4
Gtrs I, II
|-Rhy Fig 5 (Rhythm Slashes)
E F#5 E F#5 E F#5G5
E E E E q Q E E Q
| | | | | | | |
o / o / / o / /
Gtr V
E +E E E +E E E E +E E E E
|-------------------------------------|-------14----17b19==|
|-17-----(17)----14-(14)--------------|----------14--------|
|-16b18==(16)r---14-(14)----14-16b18==|=(16)r--------------|
|------------------------16-----------|--------------------|
|-------------------------------------|--------------------|
|-------------------------------------|--------------------|


4/4 2/4
E F#5 E F#5 E G5
E E E E q E E E E Q
| | | | | | | | |
o / o / / o / / /

+E +E E E S S S S e S S S S S S S S S S
|-(17)r(17)-17-14-17p14-17p14----19p14-|-20p14-20p14----19p14-17-|
|-----------------------------17-------|-------------17----------|
|--------------------------------------|-------------------------|
|--------------------------------------|-------------------------|
|--------------------------------------|-------------------------|
|--------------------------------------|-------------------------|


4/4 2/4
E F#5 E F#5 E F#5 G5
E E E E q Q E E Q
| | | | | | | |
o / o / / o / /
~~~~~
S S S S E E Q E E E +E E +E
|-17p14-17p14----14-14-----------|---------------------------|
|-------------17----17b19-----14-|-16b17==(16)r-16b17==(16)r-|
|-----------------------------14-|-16b18==(16)r-16b18==(16)r-|
|--------------------------16----|---------------------------|
|--------------------------------|---------------------------|
|--------------------------------|---------------------------|




4/4 end Rhy Fig 5-|
E F#5 E F#5 C5 B5 C5 B5
E E E E q Q E E Q E E Q
| | | | | | | | | | |
o / o / / / / / / / /
~~~~~~~~~ ~~~~~~~~~~~~~~~~~~~
S +S +E E E E E E E +E E E E +Q +Q
|----------------------------------------|---------------------------------|
|-16b17r(16)-(16)-14p16-14b14.5----16-14-|-(14)----14-17-----(17)---(17)---|
|-16b18r(16)-(16)-14----14b14.5----16-14-|-(14)----14-16b18==(16)---(16)r--|
|-------------------------------16-------|------16-------------------------|
|----------------------------------------|---------------------------------|
|----------------------------------------|---------------------------------|



2/4
E S S E S S S S S S S S S S S S E E E
|-------------------------------17p14----------------|----------------|
|-14----14-17p14-------14-17p14-------17-14-------14-|-17p14----------|
|-16b18----------16b18----------------------16b18----|-------16-14----|
|----------------------------------------------------|-------------16-|
|----------------------------------------------------|----------------|
|----------------------------------------------------|----------------|


4/4 2/4
E E E E S +S E E E +S S E E +S S
|------------------------------------|---------------------------|
|-------14h17-17b19r(17)p14-17-17b19r|=(17)p14h17-17b19r(17)p14h=|
|-14-16------------------------------|---------------------------|
|------------------------------------|---------------------------|
|------------------------------------|---------------------------|
|------------------------------------|---------------------------|


4/4 2/4
E E +S +S E Q. E +Q S S E
|------------------------17b19----17b18==|=(17)r------------|
|-17-17b19==(17)r(17)p14-----------------|----------x-------|
|----------------------------------------|---------16p14h16-|
|----------------------------------------|------------------|
|----------------------------------------|------------------|
|----------------------------------------|------------------|


4/4
~~~~~~~~~~~~
+E +E E E E E E E E +E E E +H
|---------------------------------------|------------------------------||
|---------------------------------------|------------17b19==(17)r------||
|-(16)b17==(16)r-16pb18==16-16-16-16-16-|-16r(16)p14-------------------||
|---------------------------------------|------------------------------||
|---------------------------------------|------------------------------||
|---------------------------------------|------------------------------||


E D C
E E E E E E E E
| | | | | | | |
o / / / / o / o
T T S S S T T S S S T T S S S T T S S S
||--22p19p0-0-0-21p17p0-0-0-18p15p0-0-0-17p14p0-0-0--||
||o-------------------------------------------------o||
||---------------------------------------------------||
||---------------------------------------------------||
||o-------------------------------------------------o||
||---------------------------------------------------||


E D E E C F
E E E E E E E E
| | | | | | | |
o o / o o o / o
S S S S S S S S S S S S S S S S
|-19p0-17p0-15p0-14p0-17p0-15p0-14p0-12p0--|
|------------------------------------------|
|------------------------------------------|
|------------------------------------------|
|------------------------------------------|
|------------------------------------------|


E C F G
E E E E E E E E
| | | | | | | |
o o / o x x x o
|-3-| |-3-| |-3-| |-3-|
S S S S S S S S S S S S S S S S S S S S
|-15p0-14p0-12p0-10p0-10p8p7--------10p8p7--------|
|----------------------------10p8p7--------10p8p0-|
|-------------------------------------------------|
|-------------------------------------------------|
|-------------------------------------------------|
|-------------------------------------------------|


Interlude
2/4
q Q H W H
|
x
Gtrs I, II
\7
PM PM| PM|
W E S S E E q Q E E Q
|--------------||-----------------|---------|
|-----------||---0-0-----0--0--|-----1---|
|-----------||---1-1-----1--1--|-----2---|
|--------------||---2-2-----2--2--|-----3---|
|--------------||---2-2-----2--2--|-----3---|
|--------------||-0-0-0-0-0-0--0--|-0-0-1---|


4/4 2/4
PM PM| PM| PM| PM|
E S S E E q Q E E Q E E Q E S S E E Q Q E E Q
|------------------|---------------|-----------------|---------|
|---0-0-----0--0---|---------------|---0-0-----0--0--|-----1---|
|---1-1-----1--1/--|-----6------6--|---1-1-----1--1--|-----2---|
|---2-2-----2--2/--|-----7------7--|---2-2-----2--2--|-----3---|
|---2-2-----2--2/--|-8-8-7--8-8-7--|---2-2-----2--2--|-----3---|
|-0-0-0-0-0-0--0---|-6-6-5--6-6-5--|-0-0-0-0-0-0--0--|-0-0-1---|


4/4 2/4
PM PM| PM PM| PM|
E S S E E q Q E E Q E E Q E S S E E q Q E E Q
|------------------|---------------||------------------|---------|
|---0-0-----0--0---|---------------||o---0-0-----0--0--|-----1---|
|---1-1-----1--1/--|-----6------6--||----1-1-----1--1--|-----2---|
|---2-2-----2--2/--|-----7------7--||----2-2-----2--2--|-----3---|
|---2-2-----2--2/--|-8-8-7--8-8-7--||o---2-2-----2--2--|-----3---|
|-0-0-0-0-0-0--0---|-6-6-5--6-6-5--||--0-0-0-0-0-0--0--|-0-0-1---|


4/4
PM PM| PM| PM| PM| PM|
E S S E E q Q E E Q E E Q E E Q E E Q
|------------------|----------------||---------------|
|---0-0-----0--0---|---------------o||---------------|
|---1-1-----1--1/--|-----6------6---||-----4------4--|
|---2-2-----2--2/--|-----7------7---||-----5------5--|
|---2-2-----2--2/--|-8-8-7--8-8-7--o||-7-7-5--7-7-5--|
|-0-0-0-0-0-0--0---|-6-6-5--6-6-5---||-5-5-3--5-5-3--|


Q=104
3/4
PM| PM| PM| PM| PM------|
E E Q E E Q E E Q E E Q E E E E E E
|---------------|---------------|-------------||
|---------------|---------------|-------------||
|-----3------3--|-----3------3--|-------------||
|-----4------4--|-----4------4--|-3-----------||
|-5-5-4--5-5-4--|-5-5-4--5-5-4--|-3-3-3-3-3-3-||
|-3-3-2--3-3-2--|-3-3-2--3-3-2--|-1-1-1-1-1-1-||


Q=100
Gtr II
|-Rhy Fig 6 (Rhythm slashes)
E5VII D C CIIC G B
E E Q E E E E E E E E E E Q E E E E E E E E
| | | | | | | | | | | | | | | | | | | | |
/ / / / o / / / / / o / / o o o / / / / /

Gtr I
PM| PM PM--------------| PM PM--------|
|-3-| |-3-|
E E Q E S S S E E E E E E E E Q E S S S E E E E E E
|----------------|-------------|----------------|--------------|
|----------------|-------------|----------------|--------------|
|----------------|-------------|----------------|--------------|
|-6-7-9--7-6h7p6-|-4-5-5-4-7-4-|-2-3-5--3-2h3p2-|-0-2-2-0-2-0--|
|----------------|-------------|----------------|--------------|
|----------------|-------------|----------------|--------------|

end Rhy Fig 6-|
Bb Bb(type 2)|-w/Rhy Fig 6
E E E E E E H Q
| | | | | | |
o / / / / / /

PM------| ~
|-3-|
E E E E E E H Q E E Q E S S S E E E e E E
|-------------|----------|----------------|-------------|
|-------------|----------|----------------|-------------|
|-----------2-|-3--------|----------------|-------------|
|-0-2-2-0-2---|-3--------|-6-7-9--7-6h7p6-|-4-5-5-4-7-4-|
|-------------|-1--------|----------------|-------------|
|-------------|------2/--|----------------|-------------|
|-Riff B

~
|-3-|
E E Q E S S S E E E e E e E E E e E E H.
|----------------|-------------|-------------|----------|
|----------------|-------------|-------------|----------|
|----------------|-------------|-----------2-|-3--------|
|-2-3-5--3-2h3p2-|-0-2-2-0-2-0-|-0-2-2-0-2---|-3--------|
|----------------|-------------|-------------|----------|
|----------------|-------------|-------------|----------|
end Riff B-|

w/Rhy Fig 6 = Riff Ax3
Gtr V
~~~~~~ ~ ~~~~~~
E E E E +E E E E E S S Q E E E E +E E E E E E Q
|-------------------|---------------|-------------------|-------------|
|-----9-------------|---------------|-----5-------------|---5-5-5-5---|
|---9---9-(9)-------|---7-7-7h9-7---|---5---5-(5)-------|-----4---4---|
|-9-----------9-----|-7-------------|-5-----------5-----|-------------|
|-------------------|---------------|-------------------|-------------|
|-------------------|---------------|-------------------|-------------|


Gtrs I, II
E5VII DV
H. H.
| |
/ /
Gtrs III, IV
PM------| ~~~~~~ ~~
E E E E E E H Q E E E E +E E E E e S S Q
|---------------|-----------||---------------------|---------------|
|---------------|-----------||o-----------9-(9)----|------7-7h8-7--|
|-------------2-|-3---------||-------9-11-9-(9)-11-|----7-7-7-9-7--|
|-0-2-2-0-2-----|-3---------||---9------9--------9-|-7--7----------|
|---------------|-1---------||o-11--12-------------|-9-------------|
|---------------|-------2/--||---------------------|---------------|
E E E E +E E E E e S S Q

CIII B5 B# Bb(type 2)
H. H. H. H.
| | | |
/ / / /

~~~~~~~ ~~
E E E a E +E E E E q E E E E Q E a E a H.
|----------------------|-------------------------|-----------------|----------||
|----------------------|----5-----------------5--|----5------------|---------o||
|----5--7-7s=9--(9)--7-|-4-----4---------4-------|-3----3---3-3s5--|-5s7------||
|-5---------10-(10)----|-0--2-(2)-0h2--0h2--0h2--|-0--2-2-0-2-7s8--|----------||
|-7--8-10-----------10-|-------------------------|-----------------|---8-----o||
|----------------------|-------------------------|-----------------|----------||
E E E a E a E a E E E E E E a E H.


Gtrs I, II
PM| PM PM| PM PM| PM PM| PM
Q E E E E Q E E E E Q E E E E Q E E E E
|------------|------------|------------|------------|
|------------|------------|------------|------------|
|-9------9---|-7------7---|-5------5---|-4------4---|
|-9------9---|-7------7---|-5------5---|-4------4---|
|-7--x-x-7-x-|-5--x-x-5-x-|-3--x-x-3-x-|-2--x-x-2-x-|
|-7--x-x-7-x-|-5--x-x-5-x-|-3--x-x-3-x-|-2--x-x-2-x-|


Faster Q=168
4/4
PM| PM| PM|
Q E E q Q E E q Q E E q W +W
|-----------|-----------|-----------||----------|--------|
|-----------|-----------|-----------||----------|--------|
|-3------3--|-3------3--|-3------3--||----------|--------|
|-3------3--|-3------3--|-3------3--||-2--------|-(2)----|
|-1--x-x-1--|-1--x-x-1--|-1--x-x-1--||-2--------|-(2)----|
|-1--x-x-1--|-1--x-x-1--|-1--x-x-1--||-0--------|-(0)----|


2/4 4/4
+W +W +W +H +W
|------------|------------|------------|--------|--------||
|------------|------------|------------|--------|--------||
|------------|------------|------------|--------|--------||
|-(2)--------|-(2)--------|-(2)--------|-(2)----|-(2)----||
|-(2)--------|-(2)--------|-(2)--------|-(2)----|-(2)----||
|-(0)--------|-(0)--------|-(0)--------|-(0)----|-(0)----||


Rhy Fig A x2

PM| PM|
E E Q E E E E D.S. al Coda (take 1st ending)
|-----------------||
|-----------------||
|-----------------||
|-8-8-7-----------||
|-8-8-7--5-5-4----||
|-6-6-5--3-3-2p0--||


&
4/4 2/4
Gtrs I, II
E5
W +H
| |
/ /

Gtrs III, IV
E Q E S +E. Q E E Q
|------------------------------|----------|
|---10b12--10b12-10b12r(10)-8--|----------|
|---11b12--11b12-11b12r(11)-9--|-11-11-9--|
|------------------------------|-10-10-9--|
|------------------------------|----------|
|------------------------------|----------|
E Q E S +E. Q E E Q
|-Riff C

A5
4/4
W +W
| |
/ /

E Q E S +E. Q E E Q E E Q
|------------------------------|------------------|
|---10b12--10b12-10b12r(10)-8--|--7--7-----7-8----|
|---11b12--11b12-11b12r(11)-9--|-------7-----7-9--|
|------------------------------|-10-10-7--10---9--|
|------------------------------|------------------|
|------------------------------|------------------|
E Q E S +E. Q E E Q E E Q
end Riff C-|

w/Riff C
4/4 2/4
E Q. +H +H
| | | |
x / / /
|------------------------------|----------|


4/4
E Q. +H +W
| | | |
x / / /
|------------------------------|------------------|



E5II A5 B5
2/4 4/4
E Q. +H +H W W
| | | | | |
x / / / / /

E Q E S +E. Q E E Q W +W
|------------------------------|----------||----------|--------|
|---10b12--10b12-10b12r(10)-8--|----------||----------|--------|
|---11b12--11b12-11b12r(11)-9--|-11-11-9--||-9--------|-(9)----|
|------------------------------|-10-10-9--||-9--------|-(9)----|
|------------------------------|----------||----------|--------|
|------------------------------|----------||----------|--------|
E Q E S +E. Q E E Q


G5 C5(type 2)
W W W W
| |
/ /

Gtrs I, II, III, IV
PM| PM|
+W +W H. Q E E Q E E Q
|------------|------------|-------------|---------------|
|------------|------------|-------------|---------------|
|-(9)--------|-(9)--------|-0-----------|---------------|
|-(9)--------|-(9)--------|-3-------3/--|-8-8-7--8-8-7--|
|------------|------------|-3-------3/--|-8-8-7--8-8-7--|
|------------|------------|-1-------1/--|-6-6-5--6-6-5--|


E5 A5
2/4 4/4
Gtrs I, II
W +H W +W
| | | |
/ / / /

Gtrs III, IV
--------------------|PM-------------------------|PM-------|
E Q E Q Q E E Q E Q E Q Q E E Q E E Q
|-----------------|---------|-----------------|----------------|
|-----------------|---------|-----------------|----------------|
|-----------------|---------|-----------------|----------------|
|----/9---9-7--5--|---------|----/9---9-7--5--|-----------5----|
|---/10--10-9--7--|--9-9-7--|---/10--10-9--7--|--9-7-5--7---7--|
|-----------------|--8-8-7--|-----------------|--8-7-5--7-8-7--|
E Q E Q Q E E Q E Q E Q Q E E Q E E Q


A5
2/4 4/4
W +H W +W
| | | |
/ / / /

----------------------|PM---------------------------|PM-------|
E E E E Q Q E E Q E E E E Q Q E E Q E E Q
|-------------------|---------|-------------------|----------------|
|-------------------|---------|-------------------|----------------|
|-------------------|---------|-------------------|----------------|
|----/9--9--9-7--5--|---------|----/9--9--9-7--5--|-----------5----|
|---/10-10-10-9--7--|--9-9-7--|---/10-10-10-9--7--|--9-7-5--7---7--|
|-------------------|--8-8-7--|-------------------|--8-7-5--7-8-7--|
E E E E Q Q E E Q E E E E Q Q E E Q E E Q


E5II
4/4 2/4
Gtr I
W +H
| |
/ /

Gtrs II, III
E Q E S +E. Q E E Q
||-------------------------------|----------|
||o---10b12--10b12-10b12r(10)-8--|----------|
||----11b12--11b12-11b12r(11)-9--|-11-11-9--|
||-------------------------------|-10-10-9--|
||o------------------------------|----------|
||-------------------------------|----------|
E Q E S +E. Q E E Q


D5(type 2)
4/4 2/4
W +H
| |
/ /

E Q E S +E. Q E E Q
|------------------------------|----------|
|---10b12--10b12-10b12r(10)-8--|--7--7----|
|---11b12--11b12-11b12r(11)-9--|-------7--|
|------------------------------|-10-10-7--|
|------------------------------|----------|
|------------------------------|----------|
E Q E S +E. Q E E Q


1.
B5
4/4 2/4
W +H
| |
/ /

E Q E S +E. Q E E Q
|------------------------------|----------|
|---10b12--10b12-10b12r(10)-8--|----------|
|---11b12--11b12-11b12r(11)-9--|-11-11-9--|
|------------------------------|-10-10-9--|
|------------------------------|----------|
|------------------------------|----------|
E Q E S +E. Q E E Q


A5 G5 F#5E5
4/4 2/4
W E E q
| | | |
/ / / /

E Q E S +E. Q E E Q
|------------------------------|-----------||
|---10b12--10b12-10b12r(10)-8--|----------o||
|---11b12--11b12-11b12r(11)-9--|-11-11-9---||
|------------------------------|-10-10-9---||
|------------------------------|----------o||
|------------------------------|-----------||
E Q E S +E. Q E E Q


2.
B5 C5(typB52) A5
4/4 2/4 4/4
W E E q W
| | | | |
/ / / / /

E Q E S +E. Q E E Q E Q E S +E. Q
|------------------------------|----------|------------------------------|
|---10b12--10b12-10b12r(10)-8--|----------|---10b12--10b12-10b12r(10)-8--|
|---11b12--11b12-11b12r(11)-9--|-11-11-9--|---11b12--11b12-11b12r(11)-9--|
|------------------------------|-10-10-9--|------------------------------|
|------------------------------|----------|------------------------------|
|------------------------------|----------|------------------------------|
E Q E S +E. Q E E Q E Q E S +E. Q


G5 F#5E5II G5 F#5E5II
2/4 4/4 2/4
E E q W E E q
| | | | | |
/ / / / / /

E E Q E Q S +S +Q Q E E Q
|----------|-------------------------------|-----------*|
|----------|---10b12--10b12==(10)r(10)--8--|--7--7-----*|
|-11-11-9--|---11b12--11b12==(11)r(11)--9--|-------9\--*|
|-10-10-9--|-------------------------------|-10-10-9\--*|
|----------|-------------------------------|-----------*|
|----------|-------------------------------|-----------*|
E E Q E Q S +S +Q Q E E Q

Like us on Facebook.....
-> Loading Time :0.0247 sec