Amour of the Harp Tabs & Lyrics by Novembers Doom

Amour of the Harp

guitar tabs lyrics

Novembers Doom

Album : Amid Its Hallowed Mirth death doom metal PlayStop


-------------------------------------------------------------------------------
Amour of the Harp - November's Doom
-------------------------------------------------------------------------------
Tabbed by: John Mills (JKMV11)
Email: jkmv45@gmail.com

Hey. This is my first tab. It is almost 100% correct...a few parts may be off by
a bit, but overall it sound right.

I couldn't figure out the acoustic solo at about 4:10 and the guitar in the

background of the part at 4:46;
if you figure either one out then email it to me and i will put it in or you can
make a separate tab for it.

You might be able to pull it off in B Standard, but i figured Drop A# would be appropriate
because most of their other songs are in the same tuning. Whichever way is easier for you.

Tuning: Drop A# (A# F A# D# G C)
Tempo: 96 bpm
Key Signature: B Minor
Time Signature: 4/4

Intro: clean Riff A: Distorted
q q q h q h (x4) h. q h. |-3-| h. q h h
||-------------------------||-----------------------------------------------|
||--7--6-------------------||-----------------------------------------------|
||o-------7--6-------6----o||o----------------------------------------------|
||o---------------8-------o||o---------3--4------3/4\3----------------------|
||-------------------------||---1------1--2------1/2\1--4------4--6----2----|
||-------------------------||---1-----------------------4------4--6----2----|

h. q h. |-3-| h. q q. e h
|------------------------------------------------||
|------------------------------------------------||
|-----------------------------------------------o||
|---------3--4------3/4\3-----------------------o||
|--1------1--2------1/2\1--4------4--6---6-6~----||
|--1-----------------------4------4--6---6-6~----||

Verse 1:
h q q h q h w+w (x5)
||---------------------------------------------------------||
||---------------------------------------------------------||
||o-------------------------------------------------------o||
||o-------------------------------------------------------o||
||--1----6--9--8----9--6--7--------------------------------||
||--1----6--9--8----9--6--7--------------------------------||

Riff B:
Guitar 1:
w+h h w+h h w+h h w+h h
||-------------------------------------------------------------------------------||
||-------------------------------------------------------------------------------||
||o-----------------------------------------------------------------------------o||
||o-----------------------------------------------------------------------------o||
||---1-----------------1-----------------1-----------------1---------------------||
||---1------------9~---1------------8~---1------------7~---1------------2br------||
| |
| Guitar 2: |
| hr e.e.e h hr+hr e.e.e h hr+hr e.e.e h hr+hr e.e.e h hr |
||-------------------------------------------------------------------------------||
||-------------------------------------------------------------------------------||
||o-----------------------------------------------------------------------------o||
||o------------9~-----------------8~-----------------7~-----------------6~------o||
||-------6-9-8--------------6-9-8--------------6-9-8--------------6-9-8----------||
||-------------------------------------------------------------------------------||

Riff C:
q. s s q. s s q. s s q. s s q. s s q. s s q. s s h (x3)
||-----------------------------------------------------------------------||
||-----------------------------------------------------------------------||
||o---------------------------------------------------------------------o||
||o---------------------------------------------------------------------o||
||---8---x-x--6---x-x--9---x-x--1---x-x--4---x-x--3---x-x--6---x-x--2----||
||---8---x-x--6---x-x--9---x-x--1---x-x--4---x-x--3---x-x--6---x-x--2----||

Verse 2:
h q q h q h w+w (x5)
||---------------------------------------------------------||
||---------------------------------------------------------||
||o-------------------------------------------------------o||
||o-------------------------------------------------------o||
||--1----6--9--8----9--6--7--------------------------------||
||--1----6--9--8----9--6--7--------------------------------||

Riff D: (i don't know the acoustic solo; not 100% sure on the rhythm either)
e e e e h+q e e e e q (x8)
||-------------------------------||
||-------------------------------||
||o-----------------------------o||
||o-----------------------------o||
||---1-1-1-1-4------1-1--4\3-3---||
||---1-1-1-1-4------1-1--4\3-3---||
pm....| pm.|

Riff E: (i don't know the guitar part during the second and fourth whole note; not
100% sure on this part)
h e. e.e w s s h. e w h e. e.e w s s h. e w (x5)
||-----------------------------------------------------------------------------------------||
||-----------------------------------------------------------------------------------------||
||o---------------------------------------------------------------------------------------o||
||o---------------------------------------------------------------------------------------o||
||-----------------------------------------------------------------------------------------||
||---1----11-9-6-7--------6h7-6------7-7--------1----11-9-6-7--------6h7-6------4-4--------||

Outro:
h. q h. |-3-| h. q h h h. q h. |-3-| h. q q. e h
||---------------------------------------------------------------------------------------------||
||---------------------------------------------------------------------------------------------||
||o-------------------------------------------------------------------------------------------o||
||o---------3--4------3/4\3-----------------------------3--4------3/4\3-----------------------o||
||---1------1--2------1/2\1--4------4--6----2----1------1--2------1/2\1--4------4--6---6-6~----||
||---1-----------------------4------4--6----2----1-----------------------4------4--6---6-6~----||

************************************
Time Notation:
q=quarter note
h=half note
w=whole note
e=eighth note
s=sixteenth note
_+_ = sum of both time values (w+w is a total of eight beats)
_. = half of time value plus original value (q. is one and a half beats)
|-3-| = eighth note triplet
hr=half rest (pause for two beats)

Tab Notation:
| / slide up
| \ slide down
| h hammer-on
| p pull-off
| ~ vibrato
| + harmonic
| x Mute note
| b Bend
| pb Pre-bend
| br Bend release
| pbr Pre-bend release
| brb Bend release bend

************************************

Like us on Facebook.....
-> Loading Time :0.0102 sec