Am I Evil? Tabs & Lyrics by Metallica

Am I Evil?

guitar tabs lyrics

Metallica

Album : Kill 'em All thrash metal PlayStop


I hope that you can manage the song with a lil of practice ;P
If you see a bad riff, pls mail me. Enjoy itĦĦ

4/4
Gtr I
PM--| PM--|
|-3-| |-3-|
H E E H Q E E E E E E E E E E
|----------|-----------|---------------------|
|----------|-----------|---------------------|

|-9----7-9-|-10----12--|---------------------|
|-9----7-9-|--8----12--|-9---------9---------|
|-7----5-7-|--8----10--|-7---------7---------|
|-0--------|-----------|-----0-0-0-----0-0-0-|


Gtr I
PM--------------| PM--| PM--| PM--------------|
|-3-| |-3-| |-3-| |-3-| |-3-| |-3-| |-3-| |-3-|
E E E E E E E E E E E E E E E E E E E E E E E E E E E E E E E E
|-----------------------|---------------------|-----------------------|
|-----------------------|---------------------|-----------------------|
|-----------------------|---------------------|-----------------------|
|-9---------------------|-9---------9---------|-9---------------------|
|-7---------------------|-7---------7---------|-7---------------------|
|-----0-0-0-0-0-0-0-0-0-|-----0-0-0-----0-0-0-|-----0-0-0-0-0-0-0-0-0-|
|
|
| Gtr II
| W W W (slow slide)
|-----------------------|---------------------|-----------------------|
|-----------------------|---------------------|-----------------------|
|-----------------------|---------------------|-----------------------|
|-----------------------|---------------------|-----------------------|
|-----------------------|---------------------|-12\-------------------|
|-----------------------|---------------------|-14\-------------------|


Gtr I
PM--| PM--| PM--------------| PM--| PM--|
|-3-| |-3-| |-3-| |-3-| |-3-| |-3-| |-3-|
E E E E E E E E E E E E E E E E E E E E E E E E E E E E E E E
||----------------------|-----------------------|---------------------|
||o---------------------|-----------------------|---------------------|
||----------------------|-----------------------|---------------------|
||--9---------9---------|-9---------------------|-9---------9---------|
||o-7---------7---------|-7---------------------|-7---------7---------|
||------0-0-0-----0-0-0-|-----0-0-0-0-0-0-0-0-0-|-----0-0-0-----0-0-0-|
|
|
| Gtr II
| W +H H W
||----------------------|-----------------------|---------------------|
||o---------------------|-----------------------|---------------------|
||----------------------|-----------------------|---------------------|
||----------------------|--------9--------------|-8-------------------|
||o-2-------------------|-(2)----9--------------|-8-------------------|
||--0-------------------|-(0)----7--------------|-6-------------------|


Gtr I
PM--------------| PM--| PM--| PM--|
|-3-| |-3-| |-3-| |-3-| |-3-| |-3-| |-3-| |-3-|
E E E E E E E E E E E 4x E E E E E E E E E E E E E E E E E E E E E
|------------------------||---------------------|-----------------------|
|-----------------------o||---------------------|-----------------------|
|------------------------||---------------------|-----------7-7-7-7-7-7-|
|-9----------------------||-9---------9---------|-9---------7-7-7-7-7-7-|
|-7---------------------o||-7---------7---------|-7---------5-5-5-5-5-5-|
|-----0-0-0-0-0-0-0-0-0--||-----0-0-0-----0-0-0-|-----0-0-0-------------|
|
|
| Gtr II
| |-3-| |-3-|
| H H 4x W +H E E E E E E
|------------------------||---------------------|-----------------------|
|-----------------------o||---------------------|-----------------------|
|------------------------||---------------------|-----------7-7-7-7-7-7-|
|-(8)--------------------||---------------------|-----------7-7-7-7-7-7-|
|-(8)----3--------------o||-2-------------------|-(2)-------5-5-5-5-5-5-|
|-(6)----1---------------||-0-------------------|-(0)-------------------|


Gtrs I, II
PM--| PM--| PM--|
|-3-| |-3-| |-3-| |-3-| |-3-|
E E E E E E E E E E E E E E E E E E E E E 3x
||----------------------|------------------------||
||o---------------------|-----------------------o||
||----------------------|-----------7-7-7-7-7-7--||
||--9---------9---------|-9---------7-7-7-7-7-7--||
||o-7---------7---------|-7---------5-5-5-5-5-5-o||
||------0-0-0-----0-0-0-|-----0-0-0--------------||


Gtrs I, II Gtr I
~~~ ~~
Q Q Q Q Q Q Q Q Q Q a H E a Q. a H
|---------|---------|-----------|--------------------|
|---------|-------6-|-5-6-6S8---|---8S10----10S12----|
|---------|---4-3---|-----------|--------------------|
|-------3-|-2-------|-----------|--------------------|
|---2-1---|---------|-----------|--------------------|
|-0-------|---------|-----------|--------------------|


Gtr I
|-3-| |-3-| |-3-| |-3-| |-3-| |-3-| |-3-| |-3-|
E E E E E E E E E E E E E E E E E E E E E E E E
|-------------------------|-------------------------|
|-0h5h8-0h5h8-0h5h8-0h5h8-|-0h5h8-0h5h8-0h5h8-0h5h8-|
|-------------------------|-------------------------|
|-------------------------|-------------------------|
|-------------------------|-------------------------|
|-------------------------|-------------------------|


Gtr I
|-3-| |-3-| |-3-| |-3-| |-3-| |-3-| |-3-| |-3-|
E E E E E E E E E E E E E E E E E E E E E E E E
|-------------------------|-------------------------|
|-0h4h7-0h4h7-0h4h7-0h4h7-|-0h4h7-0h4h7-0h4h7-0h4h7-|
|-------------------------|-------------------------|
|-------------------------|-------------------------|
|-------------------------|-------------------------|
|-------------------------|-------------------------|


Gtr I
|-3-| |-3-| |-3-| |-3-| |-3--| |-3--| |-3-| |-3-|
E E E E E E E E E E E E E E E E E E E E E E E E
|-------------------------|---------------------------|
|-0h5h8-0h5h8-0h5h8-0h5h8-|-0h7h10-0h7h10-0h5h8-0h5h8-|
|-------------------------|---------------------------|
|-------------------------|---------------------------|
|-------------------------|---------------------------|
|-------------------------|---------------------------|


Gtr I
|-3-| |-3-| |-3-| |-3-| |-3-| |-3-| |-3-|
E E E E E E E E E E E E E E E E E E E E E +Q +W
|-------------------------|------------------------|------------|
|-0h4h7-0h4h7-0h4h7-0h4h7-|-0h4h7-0h4h7-0h4h7-(7)--|-(7)--------|
|-------------------------|------------------------|------------|
|-------------------------|------------------------|------------|
|-------------------------|------------------------|------------|
|-------------------------|------------------------|------------|


2/4
Gtr I
H Q Q H. Q H. E W +H
|------------|-------------|------------|----------|----------|
|------------|-------------|------------|----------|----------|
|------------|----------|------------|----------|----------|
|---------|-------------|---------|----------|----------|
|------------|----------|------------|-------|-()----|
|------------|-------------|---------|----------|----------|


4/4
Gtrs I, II
PM----| PM| PM--|
E E E E E E E E E E E E +Q Q 8x
||------------------|-----------------||
||o-----------------|----------------o||
||------------------|-----------------||
||------------------|-----------------||
||o---------5-----7-|-------8-(8)--7-o||
||--0-0-0-0-3-0-0-5-|-0-0-0-6-(6)--5--||


Gtrs I, II
PM----| PM| PM--|
E E E E E E E E E E E E +Q Q 8x
||------------------|-----------------||
||o-----------------|----------------o||
||------------------|-----------------||
||------------------|-----------------||
||o---------5-----7-|-------8-(8)--7-o||
||--0-0-0-0-3-0-0-5-|-0-0-0-6-(6)--5--||


Gtrs I, II
PM----| PM| PM--|
E E E E E E E E E E E E +Q Q 4x
||------------------|--------------------||
||o-----------------|-------------------o||
||----------7-----9-|-------10-(10)--9---||
||----------7-----9-|-------10-(10)--9---||
||o-----------------|-------------------o||
||--7-7-7-7---7-7---|-7-7-7--------------||


Gtrs I, II
PM----| PM| PM--|
E E E E E E E E E E E E +Q Q 6x
||------------------|-----------------||
||o-----------------|----------------o||
||------------------|-----------------||
||------------------|-----------------||
||o---------5-----7-|-------8-(8)--7-o||
||--0-0-0-0-3-0-0-5-|-0-0-0-6-(6)--5--||


Gtrs I, II
PM----| PM| PM--|
E E E E E E E E E E E E +Q Q 8x
||------------------|-----------------||
||o-----------------|----------------o||
||------------------|-----------------||
||------------------|-----------------||
||o---------5-----7-|-------8-(8)--7-o||
||--0-0-0-0-3-0-0-5-|-0-0-0-6-(6)--5--||


Gtrs I, II
PM----| PM| PM--|
E E E E E E E E E E E E +Q Q 4x
||------------------|-------------------||
||o-----------------|------------------o||
||----------7-----9-|-------10-(10)--9--||
||----------7-----9-|-------10-(10)--9--||
||o-----------------|------------------o||
||--7-7-7-7---7-7---|-7-7-7-------------||


Gtrs I, II
PM----| PM| PM--|
E E E E E E E E E E E E +Q Q 4x
||------------------|-----------------||
||o-----------------|----------------o||
||------------------|-----------------||
||------------------|-----------------||
||o---------5-----7-|-------8-(8)--7-o||
||--0-0-0-0-3-0-0-5-|-0-0-0-6-(6)--5--||


Gtrs I, II
PM----| PM| PM--|
Q E Q E H +W E E E E E E E E E E E E +Q Q
|----------------|------------|-----------------|----------------|
|----------------|------------|-----------------|----------------|
|-9----7----5----|-(5)--------|-----------------|----------------|
|-9----5----5----|-(5)--------|-----------------|----------------|
|-7----5----3----|-(3)--------|---------5-----7-|-------8-(8)--7-|
|----------------|------------|-0-0-0-0-3-0-0-5-|-0-0-0-6-(6)--5-|


Gtrs I, II
Q E Q E H +W Q E Q E H +E S S H.
|----------------|-------||-----------------|-----------------||
|----------------|-------||o----------------|----------------o||
|-9----7----5----|-(5)---||--9----7----5----|-(5)-5-5-5-------||
|-9----5----5----|-(5)---||--9----5----5----|-(5)-5-5-5-------||
|-7----5----3----|-(3)---||o-7----5----3----|-(3)-3-3-3------o||
|----------------|-------||-----------------|-----------------||


Gtrs I, II
Q E Q E H +W +W +W
|---------------|------------------|-------------|----------|
|---------------|------------------|-------------|----------|
|-9---7----5----|-(5)--------------|-(5)---------|-(5)------|
|-9---5----5----|-(5)--------------|-(5)---------|-(5)------|
|-7---5----3----|-(3)--------------|-(3)---------|-(3)------|
|---------------|------------------|-------------|----------|
|
|
| Gtr III
| Q E Q. Q +E E H. +W +W
|---------------|------------------|-------------|-----------|
|---------------|------------------|-------------|-----------|
|---------------|------------------|-------------|-----------|
|---------------|------------------|-------------|-----------|
|-7----9----10--|-(10)-10S7--------|-(7)---------|-(7)-------|
|---------------|------------------|-------------|-----------|


Gtrs I, II
PM----| PM----| PM----|
|3| |-3-| |3| |-3-| |3| |-3-|
Q E E E E Q E E E E Q E E E E Q Q
|---------------------|-----------------|
|---------------------|-----------------|
|---------------------|-----------------|
|-2---------2---------|-2------------7--|
|-0-0-0-0-0-0-0-0-0-0-|-0-0-0-0-0-5--5--|
|---------------------|-----------3-----|


Gtrs I, II
PM----| PM----| PM----|
|3| |-3-| |3| |-3-| |3| |-3-|
Q E E E E Q E E E E Q E E E E Q Q
|---------------------|-----------------|
|---------------------|-----------------|
|---------------------|-----------------|
|-2---------2---------|-2---------5-----|
|-0-0-0-0-0-0-0-0-0-0-|-0-0-0-0-0-3--5--|
|---------------------|--------------3--|


Gtrs I, II
PM----| PM----| PM----|
|3| |-3-| |3| |-3-| |3| |-3-|
Q E E E E Q E E E E Q E E E E Q Q
|---------------------|-----------------|
|---------------------|-----------------|
|---------------------|-----------------|
|-2---------2---------|-2------------7--|
|-0-0-0-0-0-0-0-0-0-0-|-0-0-0-0-0-5--5--|
|---------------------|-----------3-----|


Gtrs I, II
PM----| PM----| PM----|
|3| |-3-| |3| |-3-| |3| |-3-|
Q E E E E Q E E E E Q E E E E H
|---------------------|--------------|
|---------------------|--------------|
|---------------------|--------------|
|-2---------2---------|-2---------5--|
|-0-0-0-0-0-0-0-0-0-0-|-0-0-0-0-0-3--|
|---------------------|--------------|


Gtrs I, II
PM---------------------------------|
|3-| |-3-| |3-| |-3-| |3-| |-3-|
Q E E E E Q E E E E Q E E E E E Q.
||------------------------|-------------------|
||o-----------------------|-------------------|
||------------------------|-------------------|
||------------------------|--------------7----|
||o-----------------------|--------------5----|
||--0--0-0-0-0-0--0-0-0-0-|-0--0-0-0-0-0------|


Gtrs I, II
PM------------------------------|
|3| |-3-| |3| |-3-| |3| |-3-| |--3--|
Q E E E E Q E E E E Q E E E E Q Q Q 4x
|---------------------|--------------------||
|---------------------|-------------------o||
|---------------------|--------------------||
|---------------------|--------------7--7--||
|---------------------|--------------5--5-o||
|-0-0-0-0-0-0-0-0-0-0-|-0-0-0-0-0-0--------||


Gtrs I, II
PM----| PM----| PM----|
|3| |-3-| |3| |-3-| |3| |-3-|
Q E E E E Q E E E E Q E E E E Q Q
||----------------------|-----------------|
||o---------------------|-----------------|
||----------------------|-----------------|
||--2---------2---------|-2------------7--|
||o-0-0-0-0-0-0-0-0-0-0-|-0-0-0-0-0-5--5--|
||----------------------|-----------3-----|


Gtrs I, II
PM----| PM----| PM----|
|3| |-3-| |3| |-3-| |3| |-3-|
Q E E E E Q E E E E Q E E E E Q Q
|---------------------|------------------||
|---------------------|-----------------o||
|---------------------|------------------||
|-2---------2---------|-2---------5------||
|-0-0-0-0-0-0-0-0-0-0-|-0-0-0-0-0-3--5--o||
|---------------------|--------------3---||


Gtrs I, II
PM------------------------------|
|3| |-3-| |3| |-3-| |3| |-3-|
Q E E E E Q E E E E Q E E E E E Q.
||----------------------|------------------|
||o---------------------|------------------|
||----------------------|------------------|
||----------------------|-------------7----|
||o---------------------|-------------5----|
||--0-0-0-0-0-0-0-0-0-0-|-0-0-0-0-0-0------|


Gtrs I, II
PM------------------------------|
|3| |-3-| |3| |-3-| |3| |-3-| |--3--|
Q E E E E Q E E E E Q E E E E Q Q Q 4x
|---------------------|--------------------||
|---------------------|-------------------o||
|---------------------|--------------------||
|---------------------|--------------7--7--||
|---------------------|--------------5--5-o||
|-0-0-0-0-0-0-0-0-0-0-|-0-0-0-0-0-0--------||


Gtrs I, II
PM----| PM----| PM----|
|3| |-3-| |3| |-3-| |3| |-3-|
Q E E E E Q E E E E Q E E E E Q Q
||----------------------|-----------------|
||o---------------------|-----------------|
||----------------------|-----------------|
||--2---------2---------|-2------------7--|
||o-0-0-0-0-0-0-0-0-0-0-|-0-0-0-0-0-5--5--|
||----------------------|-----------3-----|


Gtrs I, II
PM----| PM----| PM----|
|3| |-3-| |3| |-3-| |3| |-3-|
Q E E E E Q E E E E Q E E E E Q Q
|---------------------|------------------||
|---------------------|-----------------o||
|---------------------|------------------||
|-2---------2---------|-2---------5------||
|-0-0-0-0-0-0-0-0-0-0-|-0-0-0-0-0-3--5--o||
|---------------------|--------------3---||


Gtrs I, II
W +W H H
|----------|------------|-----------|
|----------|------------|-----------|
|-9--------|-(9)--------|-----------|
|-9--------|-(9)--------|-5----7----|
|-7--------|-(7)--------|-5----7----|
|----------|------------|-3----5----|


Gtr III
~~~~~~
|-3--| |---3----| |--3--| |---3----| |--3--|
H +E E E E E Q. E +E E E E S S E E E E E S S E E E E E
|--------------7---------|------------------8-11-12-|-11h12p11----11-12-14-11h12p11----11-------|
|----------------10p7-10-|-10b12====10r(10)-9-------|----------12-------------------12----12-11-|
|-9b11-----(9)-----------|--------------------------|-------------------------------------------|
|------------------------|--------------------------|-------------------------------------------|
|------------------------|--------------------------|-------------------------------------------|
|------------------------|--------------------------|-------------------------------------------|
|
|
| Gtrs I, II
| PM--------------------------------------------------------------------|
| |3| |-3-| |3| |-3-| |3| |-3-| |3| |-3-| |3| |-3-| |3| |-3-|
| Q E E E E Q E E E E Q E E E E Q E E E E Q E E E E Q E E E E
|------------------------|--------------------------|-------------------------------------------|
|------------------------|--------------------------|-------------------------------------------|
|------------------------|--------------------------|-------------------------------------------|
|------------------------|--------------------------|-------------------------------------------|
|-2-2-2-2-2-2-2-2-2-2----|-2-2-2-2-2-2-2-2-2-2------|-2-2-2-2-2-2-2-2-2-2-----------------------|
|------------------------|--------------------------|-------------------------------------------|


Gtr III
~~~~~~~~~~
|---3---| |----3----| |-3-| |-3-| |-3-| |-3-|
H +Q E E Q Q E E E S S S S S S Q E E E E E E E E E E E
|-----------------7---|-10--9--7-9p7------7-----------|------------------------|
|-10---(10)\--/10-----|--------------10p7---10-10p7-7-|-10p7---7---------------|
|---------------------|-------------------------------|------9---9-7-9p7---7-7-|
|---------------------|-------------------------------|------------------9-----|
|---------------------|-------------------------------|------------------------|
|---------------------|-------------------------------|------------------------|
|
|
| Gtrs I, II
| PM----------------------------------------------------------------------|
| |3| |-3-| |3| |-3-| |3| |-3-| |3| |-3-| |3| |-3-| |3| |-3-|
| Q E E E E Q E E E E Q E E E E Q E E E E Q E E E E Q E E E E
|---------------------|-------------------------------|------------------------|
|---------------------|-------------------------------|------------------------|
|---------------------|-------------------------------|------------------------|
|---------------------|-------------------------------|------------------------|
|-2-2-2-2-2-2-2-2-2-2-|-2-2-2-2-2-2-2-2-2-2-----------|-2-2-2-2-2-2-2-2-2-2----|
|---------------------|-------------------------------|------------------------|


Gtr III
|-3-| |--3--| |-3-| |-3--| |-3-| |--3--| |-3-|
E E E E E S S E E E E E Q Q +Q Q. E E E E E E S S E E E E E
|------7----------------------|---------------------|------7----------------------|
|--------10p7-----------------|-9-------------------|--------10p7-----------------|
|-9b11--------9-7h9-7---7-7-7-|-9-7-(7)b8------7----|-9b11--------9-7h9-7---7-7-7-|
|---------------------9-------|-----------9---------|---------------------9-------|
|-----------------------------|---------------------|-----------------------------|
|-----------------------------|---------------------|-----------------------------|
|
|
| Gtrs I, II
| PM------------------------------------------------------------|
| |3| |-3-| |3| |-3-| |3| |-3-| |3| |-3-| |3| |-3-| |3| |-3-|
| Q E E E E Q E E E E Q E E E E Q E E E E Q E E E E Q E E E E
|-----------------------------|---------------------|-----------------------------|
|-----------------------------|---------------------|-----------------------------|
|-----------------------------|---------------------|-----------------------------|
|-----------------------------|---------------------|-----------------------------|
|-2-2-2-2-2-2-2-2-2-2---------|-2-2-2-2-2-2-2-2-2-2-|-2-2-2-2-2-2-2-2-2-2---------|
|-----------------------------|---------------------|-----------------------------|


Gtr III
|-3-| |--3--| |-3-| |-3-| |--3--| |---3---|
E E E E E S S E E E E E E E E E E S S E E Q Q Q Q H
|------7----------------------|------7--------------------|-19--20--22--22b24---|
|--------10p7-----------------|--------10p7---------------|---------------------|
|-9b11--------9-7h9-7---7-7-7-|-9b11--------9-7h9-7---7/--|---------------------|
|---------------------9-------|---------------------9-----|---------------------|
|-----------------------------|---------------------------|---------------------|
|-----------------------------|---------------------------|---------------------|
|
|
| Gtrs I, II
| PM--------------------------------------------------------------------------|
| |3| |-3-| |3| |-3-| |3| |-3-| |3| |-3-| |3| |-3-| |3| |-3-|
| Q E E E E Q E E E E Q E E E E Q E E E E Q E E E E Q E E E E
|-----------------------------|---------------------------|---------------------|
|-----------------------------|---------------------------|---------------------|
|-----------------------------|---------------------------|---------------------|
|-----------------------------|---------------------------|---------------------|
|-2-2-2-2-2-2-2-2-2-2---------|-2-2-2-2-2-2-2-2-2-2-------|-2-2-2-2-2-2-2-2-2-2-|
|-----------------------------|---------------------------|---------------------|


Gtr III
|------3-------| |------3-------| |------3-------| |------3-------|
E E E E E E E E E E E E E E E E E E E E E E E E
|-15p12-14p12----12-15p12-14p12----12-|-15p12-14p12----12-15p12-14p12----12-|
|-------------14----------------14----|-------------14----------------14----|
|-------------------------------------|-------------------------------------|
|-------------------------------------|-------------------------------------|
|-------------------------------------|-------------------------------------|
|-------------------------------------|-------------------------------------|
|
|
| Gtrs I, II
| PM------------------------------------------------------|
| |3| |-3-| |3| |-3-| |3| |-3-| |3| |-3-|
| Q E E E E Q E E E E Q E E E E Q E E E E
|-------------------------------------|-------------------------------------|
|-------------------------------------|-------------------------------------|
|-------------------------------------|-------------------------------------|
|-------------------------------------|-------------------------------------|
|-------------------------------------|-------------------------------------|
|-0-0-0-0-0-0-0-0-0-0-----------------|-0-0-0-0-0-0-0-0-0-0-----------------|


Gtr III
|---3---| |---3---| |---3---|
Q Q Q Q Q Q Q Q Q Q E E
|-15--14--12------12-----|----------------------|
|-------------15------15-|-14--12--14-----------|
|------------------------|-------------12--12S7-|
|------------------------|----------------------|
|------------------------|----------------------|
|------------------------|----------------------|
|
|
| Gtrs I, II
| PM-----------------------------------------|
| |3| |-3-| |3| |-3-| |3| |-3-| |3| |-3-|
| Q E E E E Q E E E E Q E E E E Q E E E E
|------------------------|----------------------|
|------------------------|----------------------|
|------------------------|----------------------|
|------------------------|----------------------|
|------------------------|----------------------|
|-0-0-0-0-0-0-0-0-0-0----|-0-0-0-0-0-0-0-0-0-0--|


Gtr III
|-3-| |-3-| |-3-| |-3-| |-3-| |-3-| |-3-|
E E E E E E E E E E E E E E E E E E E E E E E
|------7-10p7---9p7---10p7---|-12p7---10p7---9p7---10p7---|
|-------------7-----7------7-|------7------7-----7------7-|
|-9b11-----------------------|----------------------------|
|----------------------------|----------------------------|
|----------------------------|----------------------------|
|----------------------------|----------------------------|
|
|
| Gtrs I, II
| PM--------------------------------------------|
| |3| |-3-| |3| |-3-| |3| |-3-| |3| |-3-|
| Q E E E E Q E E E E Q E E E E Q E E E E
|----------------------------|----------------------------|
|----------------------------|----------------------------|
|----------------------------|----------------------------|
|----------------------------|----------------------------|
|-2-2-2-2-2-2-2-2-2-2--------|-2-2-2-2-2-2-2-2-2-2--------|
|----------------------------|----------------------------|


Gtr III
|--3--| |--3---| |--3--|
Q Q Q Q Q Q Q Q Q Q Q
|-10--9--7------7-----|---------------------|
|-----------10-----10-|-9--7--9-------------|
|---------------------|----------7--7\------|
|---------------------|---------------------|
|---------------------|---------------------|
|---------------------|---------------------|
|
|
| Gtrs I, II
| PM--------------------------------------|
| |3| |-3-| |3| |-3-| |3| |-3-| |3| |-3-|
| Q E E E E Q E E E E Q E E E E Q E E E E
|---------------------|---------------------|
|---------------------|---------------------|
|---------------------|---------------------|
|---------------------|---------------------|
|-2-2-2-2-2-2-2-2-2-2-|-2-2-2-2-2-2-2-2-2-2-|
|---------------------|---------------------|


Gtr III
|-3-| |-3-| |-3-| |-3-| |-3-| |-3-| |-3-| |-3-|
E E E E E E E E E E E E E E E E E E E E E E E E
|-------------------------|-------------------------|
|-0h4h7-0h4h7-0h4h7-0h4h7-|-0h5h8-0h5h8-0h5h8-0h5h8-|
|-------------------------|-------------------------|
|-------------------------|-------------------------|
|-------------------------|-------------------------|
|-------------------------|-------------------------|
|
|
| Gtrs I, II
| PM------------------------------------------|
| |3| |-3-| |3| |-3-| |3| |-3-| |3| |-3-|
| Q E E E E Q E E E E Q E E E E Q E E E E
|-------------------------|-------------------------|
|-------------------------|-------------------------|
|-------------------------|-------------------------|
|-------------------------|-------------------------|
|-2-2-2-2-2-2-2-2-2-2-----|-2-2-2-2-2-2-2-2-2-2-----|
|-------------------------|-------------------------|


Gtr III
|-3-| |-3-| |-3-| |-3-| |-3-| |-3-| |-3-| |-3-|
E E E E E E E E E E E E E E E E E E E E E E E E
|-------------------------|-0h4h7-0h4h7-0h4h7-0h4h7-|
|-0h4h7-0h4h7-0h4h7-0h4h7-|-------------------------|
|-------------------------|-------------------------|
|-------------------------|-------------------------|
|-------------------------|-------------------------|
|-------------------------|-------------------------|
|
|
| Gtrs I, II
| PM------------------------------------------|
| |3| |-3-| |3| |-3-| |3| |-3-| |3| |-3-|
| Q E E E E Q E E E E Q E E E E Q E E E E
|-------------------------|-------------------------|
|-------------------------|-------------------------|
|-------------------------|-------------------------|
|-------------------------|-------------------------|
|-2-2-2-2-2-2-2-2-2-2-----|-2-2-2-2-2-2-2-2-2-2-----|
|-------------------------|-------------------------|


Gtr III
|-3-| |-3-| |-3-| |-3-| |-3-| |-3-|
E E E E E E E E E E E E E E E E E E S S S S S S S S
|-0h5h8-0h5h8-0h5h8-0h5h8-|-0h4h7-0h4h7-0h4h7p0-4h7-5h8-|
|-------------------------|-----------------------------|
|-------------------------|-----------------------------|
|-------------------------|-----------------------------|
|-------------------------|-----------------------------|
|-------------------------|-----------------------------|
|
|
| Gtrs I, II
| PM------------------------------------------|
| |3| |-3-| |3| |-3-| |3| |-3-| |3| |-3-|
| Q E E E E Q E E E E Q E E E E Q E E E E
|-------------------------|-----------------------------|
|-------------------------|-----------------------------|
|-------------------------|-----------------------------|
|-------------------------|-----------------------------|
|-2-2-2-2-2-2-2-2-2-2-----|-2-2-2-2-2-2-2-2-2-2---------|
|-------------------------|-----------------------------|


Gtr III
T T T T T T T T
|-3-| |-3-| |-3-| |-3-| |-3-| |-3-| |-3-| |-3-|
E E E E E E E E E E E E E E E E E E E E E E E E
|-12p8p5-12p8p5-12p8p5-12p8p5-|-12p8p5-12p8p5-12p8p5-12p8p5-|
|-----------------------------|-----------------------------|
|-----------------------------|-----------------------------|
|-----------------------------|-----------------------------|
|-----------------------------|-----------------------------|
|-----------------------------|-----------------------------|
|
|
| Gtrs I, II
| PM----------------------------------------------|
| |3| |-3-| |3| |-3-| |3| |-3-| |3| |-3-|
| Q E E E E Q E E E E Q E E E E Q E E E E
|-----------------------------|-----------------------------|
|-----------------------------|-----------------------------|
|-----------------------------|-----------------------------|
|-----------------------------|-----------------------------|
|-0-0-0-0-0-0-0-0-0-0---------|-0-0-0-0-0-0-0-0-0-0---------|
|-----------------------------|-----------------------------|


Gtr III
T T T T T T T T
|-3-| |-3-| |-3-| |-3-| |-3-| |-3-| |-3-| |-3-|
E E E E E E E E E E E E E E E E E E E E E E E E
|-13p8p5-13p8p5-13p8p5-13p8p5-|-13p8p5-13p8p5-13p8p5-13p8p5-|
|-----------------------------|-----------------------------|
|-----------------------------|-----------------------------|
|-----------------------------|-----------------------------|
|-----------------------------|-----------------------------|
|-----------------------------|-----------------------------|
|
|
| Gtrs I, II
| PM----------------------------------------------|
| |3| |-3-| |3| |-3-| |3| |-3-| |3| |-3-|
| Q E E E E Q E E E E Q E E E E Q E E E E
|-----------------------------|-----------------------------|
|-----------------------------|-----------------------------|
|-----------------------------|-----------------------------|
|-----------------------------|-----------------------------|
|-----------------------------|-----------------------------|
|-1-1-1-1-1-1-1-1-1-1---------|-1-1-1-1-1-1-1-1-1-1---------|


Gtr III
T T T T T T T T
|-3-| |-3-| |-3-| |-3-| |-3-| |-3-| |-3-| |-3-|
E E E E E E E E E E E E E E E E E E E E E E E E
|-13p9p6-13p9p6-13p9p6-13p9p6-|-13p9p6-13p9p6-13p9p6-13p9p6-|
|-----------------------------|-----------------------------|
|-----------------------------|-----------------------------|
|-----------------------------|-----------------------------|
|-----------------------------|-----------------------------|
|-----------------------------|-----------------------------|
|
|
| Gtrs I, II
| PM----------------------------------------------|
| |3| |-3-| |3| |-3-| |3| |-3-| |3| |-3-|
| Q E E E E Q E E E E Q E E E E Q E E E E
|-----------------------------|-----------------------------|
|-----------------------------|-----------------------------|
|-----------------------------|-----------------------------|
|-----------------------------|-----------------------------|
|-1-1-1-1-1-1-1-1-1-1---------|-1-1-1-1-1-1-1-1-1-1---------|
|-----------------------------|-----------------------------|


Gtr III
T T T T T T T T
|-3-| |-3-| |-3-| |-3-| |-3-| |-3-| |-3-| |-3-|
E E E E E E E E E E E E E E E E E E E E E E E E
|-14p9p6-14p9p6-14p9p6-14p9p6-|-14p9p6-14p9p6-14p9p6-14p9p6-|
|-----------------------------|-----------------------------|
|-----------------------------|-----------------------------|
|-----------------------------|-----------------------------|
|-----------------------------|-----------------------------|
|-----------------------------|-----------------------------|
|
|
| Gtrs I, II
| PM----------------------------------------------|
| |3| |-3-| |3| |-3-| |3| |-3-| |3| |-3-|
| Q E E E E Q E E E E Q E E E E Q E E E E
|-----------------------------|-----------------------------|
|-----------------------------|-----------------------------|
|-----------------------------|-----------------------------|
|-----------------------------|-----------------------------|
|-----------------------------|-----------------------------|
|-2-2-2-2-2-2-2-2-2-2---------|-2-2-2-2-2-2-2-2-2-2---------|


Gtr III
T T T T T T T T
|-3--| |-3--| |-3--| |-3--| |-3--| |-3--| |-3--| |-3-|
E E E E E E E E E E E E E E E E E E E E E Q E
|-14p10p7-14p10p7-14p10p7-14p10p7-|-14p10p7-14p10p7-14p10p7-14/--7-|
|---------------------------------|--------------------------------|
|---------------------------------|--------------------------------|
|---------------------------------|--------------------------------|
|---------------------------------|--------------------------------|
|---------------------------------|--------------------------------|
|
|
| Gtrs I, II
| PM--------------------------------------------------|
| |3| |-3-| |3| |-3-| |3| |-3-| |3| |-3-|
| Q E E E E Q E E E E Q E E E E Q E E E E
|---------------------------------|--------------------------------|
|---------------------------------|--------------------------------|
|---------------------------------|--------------------------------|
|---------------------------------|--------------------------------|
|-2-2-2-2-2-2-2-2-2-2-------------|-2-2-2-2-2-2-2-2-2-2------------|
|---------------------------------|--------------------------------|


Gtr III
|-3-| |-3-| |-3-| |-3-| |-3-| |-3-| |-3-| |-3-|
E E E E E E E E E E E E E E E E E E E E E E E E
|-0h4h7-------0h4h7-------|-0h4h7-------0h4h7-------|
|-------0h4h7-------0h4h7-|-------0h4h7-------0h4h7-|
|-------------------------|-------------------------|
|-------------------------|-------------------------|
|-------------------------|-------------------------|
|-------------------------|-------------------------|
|
|
| Gtrs I, II
| PM--------------------------------------|
| |3| |-3-| |3| |-3-| |3| |-3-| |3| |-3-|
| Q E E E E Q E E E E Q E E E E Q E E E E
|-------------------------|-------------------------|
|-------------------------|-------------------------|
|-------------------------|-------------------------|
|-------------------------|-------------------------|
|-2-2-2-2-2-2-2-2-2-2-----|-2-2-2-2-2-2-2-2-2-2-----|
|-------------------------|-------------------------|


Gtr III
|-3-| |-3-| |-3-| |-3-| |-3-| |-3-| |-3-| |-3-|
E E E E E E E E E E E E E E E E E E E E E E E E
|-------------------------|-------------------------|
|-0h4h7-------0h4h7-------|-0h4h7-------0h4h7-------|
|-------0h4h7-------0h4h7-|-------0h4h7-------0h4h7-|
|-------------------------|-------------------------|
|-------------------------|-------------------------|
|-------------------------|-------------------------|
|
|
| Gtrs I, II
| PM------------------------------------------|
| |3| |-3-| |3| |-3-| |3| |-3-| |3| |-3-|
| Q E E E E Q E E E E Q E E E E Q E E E E
|-------------------------|-------------------------|
|-------------------------|-------------------------|
|-------------------------|-------------------------|
|-------------------------|-------------------------|
|-2-2-2-2-2-2-2-2-2-2-----|-2-2-2-2-2-2-2-2-2-2-----|
|-------------------------|-------------------------|


Gtr III
|-3-| |-3-| |-3-| |-3-| |-3-| |-3-| |-3-| |-3-|
E E E E E E E E E E E E E E E E E E E E E E E E
|-------------------------|-------------------------|
|-------------------------|-------------------------|
|-0h4h7-------0h4h7-------|-0h4h7-------0h4h7-------|
|-------0h4h7-------0h4h7-|-------0h4h7-------0h4h7-|
|-------------------------|-------------------------|
|-------------------------|-------------------------|
|
|
| Gtrs I, II
| PM------------------------------------------|
| |3| |-3-| |3| |-3-| |3| |-3-| |3| |-3-|
| Q E E E E Q E E E E Q E E E E Q E E E E
|-------------------------|-------------------------|
|-------------------------|-------------------------|
|-------------------------|-------------------------|
|-------------------------|-------------------------|
|-2-2-2-2-2-2-2-2-2-2-----|-2-2-2-2-2-2-2-2-2-2-----|
|-------------------------|-------------------------|


Gtr III
|-3-| |-3-| |-3-| |-3-|
E E E E E E E E E E E E Q Q E S S S S S S
|-------------------------|------------------------7-7-|
|-------------------------|----------------7-10-10-----|
|-------------------------|--------------9-------------|
|-0h4h7-------0h4h7-------|----------------------------|
|-------0h4h7-------0h4h7-|-14S=(7)S=(2)---------------|
|-------------------------|----------------------------|
|
|
| Gtrs I, II
| PM------------------------------------------|
| |3| |-3-| |3| |-3-| |3| |-3-| |3| |-3-|
| Q E E E E Q E E E E Q E E E E Q E E E E
|-------------------------|----------------------------|
|-------------------------|----------------------------|
|-------------------------|----------------------------|
|-------------------------|----------------------------|
|-2-2-2-2-2-2-2-2-2-2-----|-2-2-2-2-2-2-2-2-2-2--------|
|-------------------------|----------------------------|


Gtr III
|-3-| |-3-| |-3-|
S S S S S S S S E E E S S S S S S S S S S S S S S S S S S S S S S
|-10-7-7-7-12-7-7-7-10-7-7-12-7-7-7-7-|-10-10-7-7-12-7-7-7-10p9p7-7-7-12p7-7-7-|
|-------------------------------------|----------------------------------------|
|-------------------------------------|----------------------------------------|
|-------------------------------------|----------------------------------------|
|-------------------------------------|----------------------------------------|
|-------------------------------------|----------------------------------------|
|
|
| Gtrs I, II
| PM------------------------------------------------------|
| |3| |-3-| |3| |-3-| |3| |-3-| |3| |-3-|
| Q E E E E Q E E E E Q E E E E Q E E E E
|-------------------------------------|----------------------------------------|
|-------------------------------------|----------------------------------------|
|-------------------------------------|----------------------------------------|
|-------------------------------------|----------------------------------------|
|-------------------------------------|----------------------------------------|
|-0-0-0-0-0-0-0-0-0-0-----------------|-0-0-0-0-0-0-0-0-0-0--------------------|


Gtr III
~~~
|-3-| |-3-| |-3-| |-3-| |-3-| |-3--|
S S S S S E E E S S S S S S E E E +E E E E +E E E E E
|-10p9p7-7-7---7-5-8-6-5-8-6-5-------|------------------------|
|------------------------------6-5-7-|-(7)-5-----------7-7-10-|
|----------------------------------7-|-(7)---7-7-(7)-7--------|
|------------------------------------|------------------------|
|------------------------------------|------------------------|
|------------------------------------|------------------------|
|
|
| Gtrs I, II
| PM-----------------------------------------------------|
| |3| |-3-| |3| |-3-| |3| |-3-| |3| |-3-|
| Q E E E E Q E E E E Q E E E E Q E E E E
|------------------------------------|------------------------|
|------------------------------------|------------------------|
|------------------------------------|------------------------|
|------------------------------------|------------------------|
|------------------------------------|------------------------|
|-0-0-0-0-0-0-0-0-0-0----------------|-0-0-0-0-0-0-0-0-0-0----|


Gtr III
|-3-| |-3-| |-3-|
Q. +E E E E E E E E E E E +E E Q. Q E E E S S E E
|---------------------------|----------------10b12r==|=10--9-7-/9p7-9-7----|
|-10b12r==(10)-10-7---7-----|------------------------|------------------10-|
|-------------------9---9-7-|-9p7---7-(7)/-----------|---------------------|
|---------------------------|-----9------------------|---------------------|
|---------------------------|------------------------|---------------------|
|---------------------------|------------------------|---------------------|
|
|
| Gtrs I, II
| PM---------------------------------------------------------------------|
| |3| |-3-| |3| |-3-| |3| |-3-| |3| |-3-| |3| |-3-| |3| |-3-|
| Q E E E E Q E E E E Q E E E E Q E E E E Q E E E E Q E E E E
|---------------------------|------------------------|---------------------|
|---------------------------|------------------------|---------------------|
|---------------------------|------------------------|---------------------|
|---------------------------|------------------------|---------------------|
|-2-2-2-2-2-2-2-2-2-2-------|-2-2-2-2-2-2-2-2-2-2----|-2-2-2-2-2-2-2-2-2-2-|
|---------------------------|------------------------|---------------------|


Gtr III
\1/
E S S Q H
|---------------------|
|-(10)p8-10-8---------|
|--------------7------|
|---------------------|
|---------------------|
|---------------------|
|
|
| Gtrs I, II
| PM----------------|
| |3| |-3-| |3| |-3-|
| Q E E E E Q E E E E
|---------------------|
|---------------------|
|---------------------|
|---------------------|
|-2-2-2-2-2-2-2-2-2-2-|
|---------------------|


Gtrs I, II
PM----| PM----| PM----|
|3| |-3-| |3| |-3-| |3| |-3-|
Q E E E E Q E E E E Q E E E E Q Q
||----------------------|-------------------|
||o---------------------|-------------------|
||----------------------|-------------------|
||--2---------2---------|-2------------7----|
||o-0-0-0-0-0-0-0-0-0-0-|-0-0-0-0-0-5--5----|
||----------------------|-----------3-------|


Gtrs I, II
PM----| PM----| PM----|
|3| |-3-| |3| |-3-| |3| |-3-|
Q E E E E Q E E E E Q E E E E Q Q
|---------------------|------------------||
|---------------------|-----------------o||
|---------------------|------------------||
|-2---------2---------|-2---------5------||
|-0-0-0-0-0-0-0-0-0-0-|-0-0-0-0-0-3--5--o||
|---------------------|--------------3---||


Gtrs I, II
PM------------------------------|
|3| |-3-| |3| |-3-| |3| |-3-|
Q E E E E Q E E E E Q E E E E E Q.
||----------------------|-------------------|
||o---------------------|-------------------|
||----------------------|-------------------|
||----------------------|-------------7-----|
||o---------------------|-------------5-----|
||--0-0-0-0-0-0-0-0-0-0-|-0-0-0-0-0-0-------|


Gtrs I, II
PM------------------------------|
|3| |-3-| |3| |-3-| |3| |-3-| |-3-|
Q E E E E Q E E E E Q E E E E Q Q Q 4x
|---------------------|------------------||
|---------------------|-----------------o||
|---------------------|------------------||
|---------------------|-------------7-7--||
|---------------------|-------------5-5-o||
|-0-0-0-0-0-0-0-0-0-0-|-0-0-0-0-0-0------||


Gtrs I, II
PM----| PM----| PM----|
|3| |-3-| |3| |-3-| |3| |-3-|
Q E E E E Q E E E E Q E E E E Q Q
||----------------------|-------------------|
||o---------------------|-------------------|
||----------------------|-------------------|
||--2---------2---------|-2------------7----|
||o-0-0-0-0-0-0-0-0-0-0-|-0-0-0-0-0-5--5----|
||----------------------|-----------3-------|


Gtrs I, II
PM----| PM----| PM----|
|3| |-3-| |3| |-3-| |3| |-3-|
Q E E E E Q E E E E Q E E E E Q Q 4x
|---------------------|------------------||
|---------------------|-----------------o||
|---------------------|------------------||
|-2---------2---------|-2---------5------||
|-0-0-0-0-0-0-0-0-0-0-|-0-0-0-0-0-3--5--o||
|---------------------|--------------3---||


Gtrs I, II
PM PM
|-3-| |-3-|
Q Q E Q E E Q E E E E E E E 3x
||---------------|---------------------||
||o--------------|--------------------o||
||---------------|---------------------||
||-----9--7-7----|-7-7-----------------||
||o----7--5-5----|-5-5--------5-7p5---o||
||--0----------0-|------0-5h7-------7--||


Gtrs I, II
Q Q E Q E E Q E Q Q
|--------------|--------------|
|--------------|--------------|
|--------------|--------------|
|----9--7-7----|-7-7----7-----|
|----7--5-5----|-5-5----5--7--|
|-0------------|-----------5--|


Gtrs I, II
PM----| PM| PM--|
E E E E E E E E E E E E +Q Q 6x Q Q Q Q
||------------------|------------------||-------------|
||o-----------------|-----------------o||-------------|
||------------------|------------------||-------------|
||------------------|------------------||-------------|
||o---------5-----7-|-------8-(8)--7--o||-------5--2--|
||--0-0-0-0-3-0-0-5-|-0-0-0-6-(6)--5---||-x--x--3--0--|


Duration Legend
---------------
W - whole;
H - half;
Q - quarter;
E - 8th;
S - 16th;
T - 32nd;
X - 64th; a - acciaccatura
+ - note tied to previous;
. - note dotted;
.. - note double dotted
Uncapitalized letters represent notes that are staccato (1/2 duration)
Irregular groupings are notated above the duration line
Duration letters will always appear directly above the note/fret number it represents the
duration for. Duration letters with no fret number below them represent rests. Multi-
bar rests are notated in the form Wxn, where n is the number of bars to rest for. Low
melody durations appear below the staff

Tablature Legend
----------------
h - hammer-on
p - pull-off
b - bend
pb - pre-bend
r - bend release (if no number after the r, then release immediately)
/\ - slide into or out of (from/to "nowhere")
s - legato slide
S - shift slide
- natural harmonic
[n] - artificial harmonic
n(n) - tapped harmonic
~ - vibrato
tr - trill
T - tap
TP - trem. picking
PM - palm muting
\n/ - tremolo bar dip; n = amount to dip
\n - tremolo bar down
n/ - tremolo bar up
/n\ - tremolo bar inverted dip
= - hold bend; also acts as connecting device for hammers/pulls
- volume swell (louder/softer)
x - on rhythm slash represents muted slash
o - on rhythm slash represents single note slash

Misc Legend
-----------
| - bar
|| - double bar
||o - repeat start
o|| - repeat end
*| - double bar (ending)
: - bar (freetime)
$ - Segno
& - Coda
Tempo markers - = BPM(8/16=s8/s16), where s8 = swing 8ths, s16 = swing 16ths

Like us on Facebook.....
-> Loading Time :0.0247 sec