Afterglow Tabs & Lyrics by Tommy Lee

Afterglow

guitar tabs lyrics

Tommy Lee

Album : Never a Dull Moment albums i own PlayStop


This song's official tuning is Drop Db, but I have a hobby of translating songs
into just plain Drop D, and that's exactly what I did here.

Afterglow
As performed on "Never A Dull Moment"
Written by Tommy Lee

Drop D
p pull off
/ slide up

x muffled strings
PM palm muting

Intro/Verse Repeat it a bunch of times
Distortion w/ wah pedal
e[-----------------------------------------------------------
B[-----------------------------------------------------------
G[----------6-----------6-------------6--------6/7--7--------
D[---------------------------------------------x-x--x--x-x---
A[-5p4-4-4-----5p4-4-4-------5p4-4-4----5p4-4--4/5--5--x-x---
D[-----------------------------------------------------x-x---

Chorus (x2)
Distortion
e[-----------------------------------------------------------
B[-----------------------------------------------------------
G[-----------------------------------------------------------
D[-7-7-7--2-2-2----1-1-1--0-0-0--------------1-0-0-----------
A[-7-7-7--2-2-2----1-1-1--0-0-0-------1p0----1-0-0-----------
D[-7-7-7--2-2-2----1-1-1--0-0-0-------1p0----1-0-0-----------
PM....

Bridge Repeat three or four times
e[-----------------------------------------------------------
B[-----------------------------------------------------------
G[-6-6--7-7--------------------------------------------------
D[-x-x--x-x--------------------------------------------------
A[-4-4--5-5--------------------------------------------------
D[-----------------------------------------------------------

Then he plays the chorus after this, by himself



Thats it. I'm not kidding

Song structure
Intro/verse
Chorus
Verse
Chorus
Bridge
Chorus

Like us on Facebook.....
-> Loading Time :0.0134 sec