Abyss of Woe Tabs & Lyrics by GWAR

Abyss of Woe

guitar tabs lyrics

GWAR

Album : Violence Has Arrived metal PlayStop


-------------------------------------------------------------------------------
Abyss Of Woe - GWAR
-------------------------------------------------------------------------------
Tabbed by: Chris "|SpitFire|" Conner
Email: freqout@freenet.de

Tuning: E-Flat


Intro


eb--------------------------|--------------------------|
Bb--------------------------|--------------------------|
Gb--4--x--x--5--x--x--4--x--|--4--x--x--4--x--x--4--x--|
Db--------------------------|--------------------------|
Ab--------------------------|--------------------------|
Eb--------------------------|--------------------------|

Chorus

eb-----------------------------|--------------------------|
Bb-----------------------------|--------------------------|
Gb--9--9--9--10--10--10--9--9--|--7--7--7--9--9--9--9--9--|
Db--9--9--9--10--10--10--9--9--|--7--7--7--9--9--9--9--9--|
Ab--7--7--7--8---8---8---7--7--|--5--5--5--7--7--7--7--7--|
Eb-----------------------------|--------------------------|

eb-----------------------------|--------------------------|
Bb-----------------------------|--------------------------|
Gb--9--9--9--10--10--10--9--9--|--7--7--7--5--5--5--5--5--|
Db--9--9--9--10--10--10--9--9--|--7--7--7--5--5--5--5--5--|
Ab--7--7--7--8---8---8---7--7--|--5--5--5--3--3--3--3--3--|
Eb-----------------------------|--------------------------|

Verse

eb-----------------------------|--------------------------|
Bb-----------------------------|--------------------------|
Gb-----------------------------|--------------------------|
Db--9--9--9--10--10--10--9--9--|--7--7--7--9--9--9--9--9--|
Ab--7--7--7--8---8---8---7--7--|--5--5--5--7--7--7--7--7--|
Eb-----------------------------|--------------------------|
. . . . . . . . . last time--v
eb-----------------------------|--------------------------||--------------------------|
Bb-----------------------------|--------------------------||--------------------------|
Gb-----------------------------|--------------------------||--------------------------|
Db--9--9--9--10--10--10--9--9--|--7--7--7--5--5--5--5--5--||--7--7--7--5--5--5--7--9--|
Ab--7--7--7--8---8---8---7--7--|--5--5--5--3--3--3--3--3--||--5--5--5--3--3--3--5--7--|
Eb-----------------------------|--------------------------||--------------------------|
. . . . . . . . .

Hold the last chord until Interlude


Interlude

Guitar 1:
-------let ring-----------
eb--------------------|---------------------|
Bb--------------------|----------3----------|
Gb------4----5--4-----|--5--4---------------|
Db--------------------|---------------------|
Ab--------------------|---------------------|
Eb--------------------|---------------------|

Guitar 2:

eb--------------------|--------------------------|
Bb--------------------|--------------------------|
Gb--------------------|--------------------------|
Db--9--9--9--9--9--9--|--9--9--9--9--9--5--7--9--|
Ab--7--7--7--7--7--7--|--7--7--7--7--7--3--5--7--|
Eb--------------------|--------------------------|
hold until next phrase -^

Solo Rythm

eb--------------------------|--------------------------|
Bb--------------------------|--------------------------|
Gb--------------------------|--------------------------|
Db--------------------------|--------------------------|
Ab--8--8--8--7--7--7--5--5--|--5--5--5--5--5--5--5--5--|
Eb--6--6--6--5--5--5--3--3--|--3--3--3--3--3--3--3--3--|


| / slide up
| \ slide down
| h hammer-on
| p pull-off
| ~ vibrato
| + harmonic
| x Mute note
===============================================================================

Like us on Facebook.....
-> Loading Time :0.0102 sec