A Little Piece of Heaven Chords & Lyrics by Avenged Sevenfold

A Little Piece of Heaven

guitar chords lyrics

Avenged Sevenfold

Album : Avenged Sevenfold hard rock PlayStop


This is my first chord so I hope you enjoy it! :)

Palm Mute*

Chords Used:
Am E F C D
e|------| |-------| |-------| |-------| |---2---|
B|--1---| |-------| |---1---| |---1---| |---3---|
G|--2---| |---1---| |---2---| |---0---| |---2---|
D|--2---| |---2---| |---3---| |---2---| |---0---|

A|------| |---2---| |---3---| |---3---| |-------|
E|------| |-------| |-------| |-------| |-------|


Intro:

e|----10--13--12--10--9--10-12-10-5--6--3--5--1--0--3--6--5--1------|
B|------------------------------------------------------------------|
G|------------------------------------------------------------------|
D|------------------------------------------------------------------|
A|------------------------------------------------------------------|
E|------------------------------------------------------------------|



e|----10--13--12--10--9--10-12-10-5--6--3--5--1--0--3--1--0---------|
B|------------------------------------------------------------------|
G|------------------------------------------------------------------|
D|------------------------------------------------------------------|
A|------------------------------------------------------------------|
E|------------------------------------------------------------------|




Am* E* F* C*
e|--5--6--5--1--0------------|--8--9--8--6--4--1--------------------| 2x
B|-----------------3---------|--------------------------------------|
G|------------------------------------------------------------------|
D|------------------------------------------------------------------|
A|------------------------------------------------------------------|
E|------------------------------------------------------------------|




Am* E*
Before the story begins, is it such a sin,
F* C*
for me to take what's mine, until the end of time
Am* E*
We were more than friends, before the story ends,
F* C*
And I will take what's mine, create what God would never design

Am E
Our love had been so strong for far too long,
F C
I was weak with fear that something would go wrong,
Am E
Before the possibilities came true,
F C
I took all possibility from you

Am E
Almost laughed myself to tears,
(ha hahahahaha)
F C
conjuring her deepest fears
(come here you fucking bitch)

Am E
Must have stabbed her fifty fucking times,
F
I can't believe it,
C D
Ripped her heart out right before her eyes,
Am E
Eyes over easy, eat it, eat it, eat it

Am E
She was never this good in bed even when she was sleeping
F C
now she's just so perfect I've never been quite so fucking deep in
D
it goes on and on and on,

Am E
I can keep you looking young and preserved forever,
F C
with a fountain to spray on your youth whenever

D Am
'Cause I really always knew that my little crime
E F
would be cold that's why I got a heater for your thighs
D
and I know, I know it's not your time
D
but bye, bye
D Am
and a word to the wise when the fire dies
E F
you think it's over but it's just begun
C
but baby don't cry

Am E
You had my heart, at least for the most part
F C
'cause everybody's gotta die sometime,
Am E
We fell apart, let's make a new start
Am C D
'cause everybody's gotta die sometime, yeah yeah

but baby don't cry

Am E F C
Now possibilities I'd never considered,
Am E F
are occurring the likes of which I'd never heard,
C Am E
Now an angry soul comes back from beyond the grave,
F C
to repossess a body with which I'd misbehaved

Am E
Smiling right from ear to ear
F C
Almost laughed herself to tears


Am E
Must have stabbed her fifty fucking times,
F
I can't believe it,
C D
Ripped her heart out right before her eyes,
Am E
Eyes over easy, eat it, eat it, eat it

F C
Now that it's done I realize the error of my ways
Am E
I must venture back to apologize from somewhere far beyond the grave

F C
I gotta make up for what I've done
Am E
'Cause I was all up in a piece of heaven
F C
while you burned in hell, no peace forever


D Am
'Cause I really always knew that my little crime
E F
would be cold that's why I got a heater for your thighs
D
and I know, I know it's not your time
D
but bye, bye
D Am
and a word to the wise when the fire dies
E F
you think it's over but it's just begun
C
but baby don't cry

Am E
You had my heart, at least for the most part
F C
'cause everybody's gotta die sometime,
Am E
We fell apart, let's make a new start
Am C D
'cause everybody's gotta die sometime, yeah yeah

but baby don't cry

Am E F
I will suffer for so long
(What will you do, not long enough)
C Am
To make it up to you
(I pray to God that you do)
E F C
I'll do whatever you want me to do
(Well then I'll grant you one chance) *
Am E
And if it's not enough
(If it's not enough, If it's not enough)
F
If it's not enough
(Not enough)
C
Try again
(Try again)
Am
And again
(And again)
E F
Over and over again

E*
We're coming back, coming back
F*
We'll live forever, live forever
E*
Let's have wedding, have a wedding
F*
Let's start the killing, start the killing

Am E
"Do you take this man in death for the rest of your unnatural life?"
"Yes, I do"
F C
"Do you take this woman in death for the rest of your unnatural life?"
"I do"
Am
"I now pronounce you"

D Am
'Cause I really always knew that my little crime
E F
would be cold that's why I got a heater for your thighs
D
and I know, I know it's not your time
D
but bye, bye
D Am
and a word to the wise when the fire dies
E F
you think it's over but it's just begun
C
but baby don't cry

Am E
You had my heart, at least for the most part
F C
'cause everybody's gotta die sometime,
Am E
We fell apart, let's make a new start
Am C D
'cause everybody's gotta die sometime, yeah yeah

but baby don't cry


Like us on Facebook.....
-> Loading Time :0.0112 sec