29 Tabs & Lyrics by Gin Blossoms

29

guitar tabs lyrics

Gin Blossoms

Album : New Miserable Experience 90s PlayStop


29 by Gin Blossoms


INTRO:

e|---10--|
B|-8-----|
G|-------| 16x
D|-------|
A|-------|

E|-------|

guitar 1: G-Am-D-G-G-C-D-(2x)

guitar 2:

e|---------------------------------------2h3-2----|
B|-------------------------------------3-------3--|
G|-7-7-5-4-2-4-4h5-4--------7-5-4--2-4------------| 2x
D|-------------------7-5--5-----------------------|
A|------------------------------------------------|
E|------------------------------------------------|


VERSE: G-Am-D-G-G-C-D


CHORUS:

guitar 1: C-G-Am-D-(2x)

guitar 2:

e|---10---|
B|-8------|
G|--------| paulit-ulit lang buong chorus...
D|--------|
A|--------|
E|--------|


guitar 1: G-Am-D-G-G-C-D

guitar 2:

e|---------------------------------------2h3-2----|
B|-------------------------------------3-------3--|
G|-7-7-5-4-2-4-4h5-4--------7-5-4--2-4------------|
D|-------------------7-5--5-----------------------|
A|------------------------------------------------|
E|------------------------------------------------|


VERSE: G-Am-D-G-G-C-D


CHORUS:

guitar 1: C-G-Am-D-(2x)

guitar 2:

e|---10---|
B|-8------|
G|--------| paulit-ulit lang buong chorus...
D|--------|
A|--------|
E|--------|


ADLIB:

guitar 1: G-Am-D-G-G-C-D

guitar 2:

e|--------------------------------------------------------|
B|--------------------------5-----------------------------|
G|----------------------------7-5-4--------0-----0-----7--|
D|---------------5-4-5-4-5----------7--4/5---5/7---7/9----|
A|-10/0----2-3-5------------------------------------------|
E|-------3------------------------------------------------|

e|-------------------------------12b-10-8-7-8-7-----------------12-10--|
B|-8/10-10-10-10-8-8-7--12b-10-8----------------8------12b-10-8--------|
G|------------------------------------------------7-7------------------|
D|---------------------------------------------------------------------|
A|---------------------------------------------------------------------|
E|---------------------------------------------------------------------|

e|-------------------------------------12----------------------------|
B|----------12b-10-8-7-8-7--------8/10----10-10/8-8-8-8-7-7-5-3-5-3--|
G|-12b-10-8----------------8-----------------------------------------|
D|---------------------------7-7-------------------------------------|
A|-------------------------------------------------------------------|
E|-------------------------------------------------------------------|


CHORUS ule hanggang mag-fade...

NITRAM
06-09-08
04:50 AM

Like us on Facebook.....
-> Loading Time :0.0132 sec